  0
SECTION
  2
HEADER
  9
$ACADVER
  1
AC1014
  9
$ACADMAINTVER
 70
     0
  9
$DWGCODEPAGE
  3
ANSI_1252
  9
$INSBASE
 10
0.0
 20
0.0
 30
0.0
  9
$EXTMIN
 10
0.0
 20
0.0
 30
0.0
  9
$EXTMAX
 10
150.789001
 20
118.107826
 30
2.0
  9
$LIMMIN
 10
0.0
 20
0.0
  9
$LIMMAX
 10
420.0
 20
297.0
  9
$ORTHOMODE
 70
     0
  9
$REGENMODE
 70
     1
  9
$FILLMODE
 70
     1
  9
$QTEXTMODE
 70
     0
  9
$MIRRTEXT
 70
     1
  9
$DRAGMODE
 70
     2
  9
$LTSCALE
 40
1.0
  9
$OSMODE
 70
     0
  9
$ATTMODE
 70
     1
  9
$TEXTSIZE
 40
2.5
  9
$TRACEWID
 40
1.0
  9
$TEXTSTYLE
  7
STANDARD
  9
$CLAYER
  8
0
  9
$CELTYPE
  6
BYLAYER
  9
$CECOLOR
 62
   256
  9
$CELTSCALE
 40
1.0
  9
$DELOBJ
 70
     1
  9
$DISPSILH
 70
     0
  9
$DIMSCALE
 40
1.0
  9
$DIMASZ
 40
2.5
  9
$DIMEXO
 40
0.625
  9
$DIMDLI
 40
3.75
  9
$DIMRND
 40
0.0
  9
$DIMDLE
 40
0.0
  9
$DIMEXE
 40
1.25
  9
$DIMTP
 40
0.0
  9
$DIMTM
 40
0.0
  9
$DIMTXT
 40
2.5
  9
$DIMCEN
 40
2.5
  9
$DIMTSZ
 40
0.0
  9
$DIMTOL
 70
     0
  9
$DIMLIM
 70
     0
  9
$DIMTIH
 70
     0
  9
$DIMTOH
 70
     0
  9
$DIMSE1
 70
     0
  9
$DIMSE2
 70
     0
  9
$DIMTAD
 70
     1
  9
$DIMZIN
 70
     8
  9
$DIMBLK
  1

  9
$DIMASO
 70
     1
  9
$DIMSHO
 70
     1
  9
$DIMPOST
  1

  9
$DIMAPOST
  1

  9
$DIMALT
 70
     0
  9
$DIMALTD
 70
     3
  9
$DIMALTF
 40
0.03937
  9
$DIMLFAC
 40
1.0
  9
$DIMTOFL
 70
     1
  9
$DIMTVP
 40
0.0
  9
$DIMTIX
 70
     0
  9
$DIMSOXD
 70
     0
  9
$DIMSAH
 70
     0
  9
$DIMBLK1
  1

  9
$DIMBLK2
  1

  9
$DIMSTYLE
  2

  9
$DIMCLRD
 70
     0
  9
$DIMCLRE
 70
     0
  9
$DIMCLRT
 70
     0
  9
$DIMTFAC
 40
1.0
  9
$DIMGAP
 40
0.625
  9
$DIMJUST
 70
     0
  9
$DIMSD1
 70
     0
  9
$DIMSD2
 70
     0
  9
$DIMTOLJ
 70
     0
  9
$DIMTZIN
 70
     8
  9
$DIMALTZ
 70
     0
  9
$DIMALTTZ
 70
     0
  9
$DIMFIT
 70
     0
  9
$DIMUPT
 70
     0
  9
$DIMUNIT
 70
     2
  9
$DIMDEC
 70
     2
  9
$DIMTDEC
 70
     2
  9
$DIMALTU
 70
     2
  9
$DIMALTTD
 70
     3
  9
$DIMTXSTY
  7
STANDARD
  9
$DIMAUNIT
 70
     0
  9
$LUNITS
 70
     2
  9
$LUPREC
 70
     4
  9
$SKETCHINC
 40
1.0
  9
$FILLETRAD
 40
2.5
  9
$AUNITS
 70
     0
  9
$AUPREC
 70
     0
  9
$MENU
  1
.
  9
$ELEVATION
 40
0.0
  9
$PELEVATION
 40
0.0
  9
$THICKNESS
 40
0.0
  9
$LIMCHECK
 70
     0
  9
$BLIPMODE
 70
     1
  9
$CHAMFERA
 40
2.5
  9
$CHAMFERB
 40
2.5
  9
$CHAMFERC
 40
0.0
  9
$CHAMFERD
 40
0.0
  9
$SKPOLY
 70
     0
  9
$TDCREATE
 40
0.000000000
  9
$TDUPDATE
 40
0.000000000
  9
$TDINDWG
 40
0.0000000000
  9
$TDUSRTIMER
 40
0.0000000000
  9
$USRTIMER
 70
     1
  9
$ANGBASE
 50
0.0
  9
$ANGDIR
 70
     0
  9
$PDMODE
 70
     0
  9
$PDSIZE
 40
0.0
  9
$PLINEWID
 40
0.0
  9
$COORDS
 70
     0
  9
$SPLFRAME
 70
     0
  9
$SPLINETYPE
 70
     6
  9
$SPLINESEGS
 70
     8
  9
$ATTDIA
 70
     0
  9
$ATTREQ
 70
     1
  9
$HANDLING
 70
     1
  9
$HANDSEED
  5
473
  9
$SURFTAB1
 70
     6
  9
$SURFTAB2
 70
     6
  9
$SURFTYPE
 70
     6
  9
$SURFU
 70
     6
  9
$SURFV
 70
     6
  9
$UCSNAME
  2

  9
$UCSORG
 10
0.0
 20
0.0
 30
0.0
  9
$UCSXDIR
 10
1.0
 20
0.0
 30
0.0
  9
$UCSYDIR
 10
0.0
 20
1.0
 30
0.0
  9
$PUCSNAME
  2

  9
$PUCSORG
 10
0.0
 20
0.0
 30
0.0
  9
$PUCSXDIR
 10
1.0
 20
0.0
 30
0.0
  9
$PUCSYDIR
 10
0.0
 20
1.0
 30
0.0
  9
$USERI1
 70
     0
  9
$USERI2
 70
     0
  9
$USERI3
 70
     0
  9
$USERI4
 70
     0
  9
$USERI5
 70
     0
  9
$USERR1
 40
0.0
  9
$USERR2
 40
0.0
  9
$USERR3
 40
0.0
  9
$USERR4
 40
0.0
  9
$USERR5
 40
0.0
  9
$WORLDVIEW
 70
     1
  9
$SHADEDGE
 70
     3
  9
$SHADEDIF
 70
    70
  9
$TILEMODE
 70
     1
  9
$MAXACTVP
 70
    48
  9
$PINSBASE
 10
0.0
 20
0.0
 30
0.0
  9
$PLIMCHECK
 70
     0
  9
$PEXTMIN
 10
0.0
 20
0.0
 30
0.0
  9
$PEXTMAX
 10
150.789001
 20
118.107826
 30
2.0
  9
$PLIMMIN
 10
0.0
 20
0.0
  9
$PLIMMAX
 10
420.0
 20
297.0
  9
$UNITMODE
 70
     0
  9
$VISRETAIN
 70
     0
  9
$PLINEGEN
 70
     0
  9
$PSLTSCALE
 70
     1
  9
$TREEDEPTH
 70
  3020
  9
$PICKSTYLE
 70
     1
  9
$CMLSTYLE
  2
STANDARD
  9
$CMLJUST
 70
     0
  9
$CMLSCALE
 40
20.0
  9
$PROXYGRAPHICS
 70
     1
  9
$MEASUREMENT
 70
     1
  0
ENDSEC
  0
SECTION
  2
CLASSES
  0
CLASS
  1
LWPOLYLINE
  2
AcDbPolyline
  3
"AutoCAD"
 90
        0
280
     0
281
     1
  0
CLASS
  1
IMAGE
  2
AcDbRasterImage
  3
ISM
 90
      127
280
     0
281
     1
  0
CLASS
  1
OLE2FRAME
  2
AcDbOle2Frame
  3
""
 90
        0
280
     0
281
     1
  0
CLASS
  1
HATCH
  2
AcDbHatch
  3
"ACAD_SEDONA"
 90
        0
280
     0
281
     1
  0
CLASS
  1
DICTIONARYVAR
  2
AcDbDictionaryVar
  3
"AutoCAD"
 90
        0
280
     0
281
     0
  0
CLASS
  1
RASTERVARIABLES
  2
AcDbRasterVariables
  3
ISM
 90
        0
280
     0
281
     0
  0
CLASS
  1
IMAGEDEF
  2
AcDbRasterImageDef
  3
ISM
 90
        0
280
     0
281
     0
  0
CLASS
  1
IMAGEDEF_REACTOR
  2
AcDbRasterImageDefReactor
  3
ISM
 90
        1
280
     0
281
     0
  0
CLASS
  1
IDBUFFER
  2
AcDbIdBuffer
  3
"Acad"
 90
        0
280
     0
281
     0
  0
CLASS
  1
SPATIAL_FILTER
  2
AcDbSpatialFilter
  3
"Acad"
 90
        0
280
     0
281
     0
  0
CLASS
  1
XRECORD
  2
AcDbXrecord
  3
"<Built In>"
 90
        0
280
     0
281
     0
  0
CLASS
  1
SORTENTSTABLE
  2
AcDbSortentsTable
  3
"AutoCAD"
 90
        0
280
     0
281
     0
  0
CLASS
  1
LAYER_INDEX
  2
AcDbLayerIndex
  3
"Acad"
 90
        0
280
     0
281
     0
  0
CLASS
  1
SPATIAL_INDEX
  2
AcDbSpatialIndex
  3
"Acad"
 90
        0
280
     0
281
     0
  0
CLASS
  1
OBJECT_PTR
  2
CAseDLPNTableRecord
  3
"ASE-LPNTableRecord"
 90
        1
280
     0
281
     0
  0
CLASS
  1
LAYOUT
  2
AcDbLayout
  3
"AutoCAD 2000"
 90
        0
280
     0
281
     0
  0
CLASS
  1
PLOTSETTINGS
  2
AcDbPlotSettings
  3
"AutoCAD 2000"
 90
        0
280
     0
281
     0
  0
CLASS
  1
ACDBDICTIONARYWDFLT
  2
AcDbDictionaryWithDefault
  3
"AutoCAD 2000"
 90
        0
280
     0
281
     0
  0
CLASS
  1
ACDBPLACEHOLDER
  2
AcDbPlaceHolder
  3
"AutoCAD 2000"
 90
        0
280
     0
281
     0
  0
CLASS
  1
VBA_PROJECT
  2
AcDbVbaProject
  3
"acadvba"
 90
        0
280
     0
281
     0
  0
CLASS
  1
WIPEOUT
  2
AcDbWipeout
  3
WipeOut|AutoCAD Express Tool|expresstools@autodesk.com
 90
      127
280
     0
281
     1
  0
CLASS
  1
WIPEOUTVARIABLES
  2
AcDbWipeoutVariables
  3
WipeOut|AutoCAD Express Tool|expresstools@autodesk.com
 90
        0
280
     0
281
     0
  0
CLASS
  1
RTEXT
  2
RText
  3
RText|AutoCAD Express Tool|expresstools@autodesk.com
 90
        0
280
     0
281
     1
  0
CLASS
  1
ARCALIGNEDTEXT
  2
AcDbArcAlignedText
  3
ATEXT|AutoCAD Express Tool|expresstools@autodesk.com
 90
        0
280
     0
281
     1
  0
ENDSEC
  0
SECTION
  2
TABLES
  0
TABLE
  2
VPORT
  5
7
100
AcDbSymbolTable
 70
     1
  0
VPORT
  5
15
100
AcDbSymbolTableRecord
100
AcDbViewportTableRecord
  2
*ACTIVE
 70
     0
 10
0.0
 20
0.0
 11
1.0
 21
1.0
 12
6.591288
 22
4.579184
 13
0.0
 23
0.0
 14
1.0
 24
1.0
 15
0.0
 25
0.0
 16
0.0
 26
0.0
 36
1.0
 17
0.0
 27
0.0
 37
0.0
 40
9.158369
 41
0.688564
 42
50.0
 43
0.0
 44
0.0
 50
0.0
 51
0.0
 71
     0
 72
   100
 73
     1
 74
     1
 75
     0
 76
     0
 77
     0
 78
     0
  0
ENDTAB
  0
TABLE
  2
LTYPE
  5
4
100
AcDbSymbolTable
 70
     3
  0
LTYPE
  5
11
100
AcDbSymbolTableRecord
100
AcDbLinetypeTableRecord
  2
BYBLOCK
 70
    64
  3

 72
    65
 73
     0
 40
0.0
  0
LTYPE
  5
12
100
AcDbSymbolTableRecord
100
AcDbLinetypeTableRecord
  2
BYLAYER
 70
    64
  3

 72
    65
 73
     0
 40
0.0
  0
LTYPE
  5
13
100
AcDbSymbolTableRecord
100
AcDbLinetypeTableRecord
  2
CONTINUOUS
 70
    64
  3
Solid line
 72
    65
 73
     0
 40
0.0
  0
ENDTAB
  0
TABLE
  2
LAYER
  5
2
100
AcDbSymbolTable
 70
     1
  0
LAYER
  5
14
100
AcDbSymbolTableRecord
100
AcDbLayerTableRecord
  2
0
 70
     0
 62
     7
  6
CONTINUOUS
  0
ENDTAB
  0
TABLE
  2
STYLE
  5
3
100
AcDbSymbolTable
 70
     1
  0
STYLE
  5
17
100
AcDbSymbolTableRecord
100
AcDbTextStyleTableRecord
  2
STANDARD
 70
     0
 40
0.0
 41
1.0
 50
0.0
 71
     0
 42
0.0
  3
txt
  4

  0
ENDTAB
  0
TABLE
  2
VIEW
  5
5
100
AcDbSymbolTable
 70
     0
  0
ENDTAB
  0
TABLE
  2
UCS
  5
6
100
AcDbSymbolTable
 70
     0
  0
ENDTAB
  0
TABLE
  2
APPID
  5
8
100
AcDbSymbolTable
 70
     1
  0
APPID
  5
16
100
AcDbSymbolTableRecord
100
AcDbRegAppTableRecord
  2
ACAD
 70
     0
  0
ENDTAB
  0
TABLE
  2
DIMSTYLE
  5
9
100
AcDbSymbolTable
 70
     1
  0
DIMSTYLE
105
18
100
AcDbSymbolTableRecord
100
AcDbDimStyleTableRecord
  2
STANDARD
 70
     0
  3

  4

  5

  6

  7

 40
1.0
 41
0.18
 42
0.0625
 43
0.38
 44
0.18
 45
0.0
 46
0.0
 47
0.0
 48
0.0
 71
     0
 72
     0
 73
     1
 74
     1
 75
     0
 76
     0
 77
     0
 78
     0
140
0.18
141
0.09
142
0.0
143
25.4
144
1.0
145
0.0
146
1.0
147
0.09
170
     0
171
     2
172
     0
173
     0
174
     0
175
     0
176
     0
177
     0
178
     0
270
     2
271
     4
272
     4
273
     2
274
     2
275
     0
280
     0
281
     0
282
     0
283
     1
284
     0
285
     0
286
     0
287
     3
288
     0
340
17
  0
ENDTAB
  0
TABLE
  2
BLOCK_RECORD
  5
1
100
AcDbSymbolTable
 70
     0
  0
BLOCK_RECORD
  5
A
100
AcDbSymbolTableRecord
100
AcDbBlockTableRecord
  2
*MODEL_SPACE
  0
BLOCK_RECORD
  5
B
100
AcDbSymbolTableRecord
100
AcDbBlockTableRecord
  2
*PAPER_SPACE
  0
ENDTAB
  0
ENDSEC
  0
SECTION
  2
BLOCKS
  0
BLOCK
  5
D
100
AcDbEntity
  8
0
100
AcDbBlockBegin
  2
*MODEL_SPACE
 70
     0
 10
0.0
 20
0.0
 30
0.0
  3
*MODEL_SPACE
  1

  0
ENDBLK
  5
E
100
AcDbEntity
  8
0
100
AcDbBlockEnd
  0
BLOCK
  5
F
100
AcDbEntity
 67
     1
  8
0
100
AcDbBlockBegin
  2
*PAPER_SPACE
 70
     0
 10
0.0
 20
0.0
 30
0.0
  3
*PAPER_SPACE
  1

  0
ENDBLK
  5
10
100
AcDbEntity
 67
     1
  8
0
100
AcDbBlockEnd
  0
ENDSEC
  0
SECTION
  2
ENTITIES
  0
VIEWPORT
  5
472
100
AcDbEntity
 67
     1
  8
0
 62
     0
 48
0.0
100
AcDbViewport
 10
0.0
 20
0.0
 30
0.0
 40
1000.0
 41
1000.0
 68
     1
 69
     1
1001
ACAD
1000
MVIEW
1002
{
1070
    16
1010
0.0
1020
0.0
1030
0.0
1010
0.0
1020
0.0
1030
1.0
1040
0.0
1040
1000.0
1040
0.0
1040
0.0
1040
50.0
1040
0.0
1040
0.0
1070
     0
1070
   100
1070
     1
1070
     1
1070
     0
1070
     0
1070
     0
1070
     0
1040
0.0
1040
0.0
1040
0.0
1040
1.0
1040
1.0
1040
1.0
1040
1.0
1070
     0
1002
{
1002
}
1002
}
  0
LINE
  5
1D
100
AcDbEntity
  8
0
 62
   172
 48
0.431835
100
AcDbLine
 10
112.886971
 20
58.107986
 30
0.0
 11
95.613564
 21
58.108021
 31
0.0
210
0.0
220
0.0
230
1.0
  0
LINE
  5
1E
100
AcDbEntity
  8
0
 62
   172
100
AcDbLine
 10
125.690979
 20
58.107967
 30
0.0
 11
147.789001
 21
58.107967
 31
0.0
210
0.0
220
0.0
230
1.0
  0
LINE
  5
1F
100
AcDbEntity
  8
0
 62
   172
100
AcDbLine
 10
95.613564
 20
55.107838
 30
0.0
 11
147.789001
 21
55.107929
 31
0.0
210
0.0
220
0.0
230
1.0
  0
LINE
  5
20
100
AcDbEntity
  8
0
 62
   172
100
AcDbLine
 10
120.038994
 20
58.308891
 30
0.0
 11
143.421677
 21
71.808891
 31
0.0
210
0.0
220
0.0
230
1.0
  0
LINE
  5
21
100
AcDbEntity
  8
0
 62
   172
100
AcDbLine
 10
125.690918
 20
58.107929
 30
0.0
 11
144.921677
 21
69.210815
 31
0.0
210
0.0
220
0.0
230
1.0
  0
ARC
  5
22
100
AcDbEntity
  8
0
 62
   172
100
AcDbCircle
 10
142.671402
 20
73.108093
 30
0.0
 40
1.500292
210
0.0
220
0.0
230
1.0
100
AcDbArc
 50
300.006227
 51
359.993774
  0
ARC
  5
23
100
AcDbEntity
  8
0
 62
   172
100
AcDbCircle
 10
142.670837
 20
73.108421
 30
0.0
 40
4.500876
210
0.0
220
0.0
230
1.0
100
AcDbArc
 50
300.006227
 51
359.993769
  0
LINE
  5
24
100
AcDbEntity
  8
0
 62
   172
100
AcDbLine
 10
144.171677
 20
73.107925
 30
0.0
 11
144.171677
 21
100.107925
 31
0.0
210
0.0
220
0.0
230
1.0
  0
LINE
  5
25
100
AcDbEntity
  8
0
 62
   172
100
AcDbLine
 10
147.171677
 20
73.107925
 30
0.0
 11
147.171677
 21
100.107925
 31
0.0
210
0.0
220
0.0
230
1.0
  0
ARC
  5
26
100
AcDbEntity
  8
0
 62
   172
100
AcDbCircle
 10
142.671402
 20
100.107765
 30
0.0
 40
1.500292
210
0.0
220
0.0
230
1.0
100
AcDbArc
 50
0.006237
 51
59.993766
  0
ARC
  5
27
100
AcDbEntity
  8
0
 62
   172
100
AcDbCircle
 10
142.670837
 20
100.107437
 30
0.0
 40
4.500876
210
0.0
220
0.0
230
1.0
100
AcDbArc
 50
0.006232
 51
59.993773
  0
LINE
  5
28
100
AcDbEntity
  8
0
 62
   172
100
AcDbLine
 10
143.421677
 20
101.406967
 30
0.0
 11
120.038994
 21
114.906967
 31
0.0
210
0.0
220
0.0
230
1.0
  0
LINE
  5
29
100
AcDbEntity
  8
0
 62
   172
100
AcDbLine
 10
144.921677
 20
104.005043
 30
0.0
 11
121.538994
 21
117.505043
 31
0.0
210
0.0
220
0.0
230
1.0
  0
ARC
  5
2A
100
AcDbEntity
  8
0
 62
   172
100
AcDbCircle
 10
119.288994
 20
113.607605
 30
0.0
 40
1.500292
210
0.0
220
0.0
230
1.0
100
AcDbArc
 50
60.006238
 51
119.993761
  0
ARC
  5
2B
100
AcDbEntity
  8
0
 62
   172
100
AcDbCircle
 10
119.288994
 20
113.606949
 30
0.0
 40
4.500875
210
0.0
220
0.0
230
1.0
100
AcDbArc
 50
60.006224
 51
119.993774
  0
LINE
  5
2C
100
AcDbEntity
  8
0
 62
   172
100
AcDbLine
 10
118.538994
 20
114.906967
 30
0.0
 11
95.156311
 21
101.406967
 31
0.0
210
0.0
220
0.0
230
1.0
  0
LINE
  5
2D
100
AcDbEntity
  8
0
 62
   172
100
AcDbLine
 10
117.038994
 20
117.505043
 30
0.0
 11
93.656311
 21
104.005043
 31
0.0
210
0.0
220
0.0
230
1.0
  0
ARC
  5
2E
100
AcDbEntity
  8
0
 62
   172
100
AcDbCircle
 10
95.906586
 20
100.107765
 30
0.0
 40
1.500292
210
0.0
220
0.0
230
1.0
100
AcDbArc
 50
120.006219
 51
179.993776
  0
ARC
  5
2F
100
AcDbEntity
  8
0
 62
   172
100
AcDbCircle
 10
95.90715
 20
100.107437
 30
0.0
 40
4.500875
210
0.0
220
0.0
230
1.0
100
AcDbArc
 50
120.006232
 51
179.993776
  0
LINE
  5
30
100
AcDbEntity
  8
0
 62
   172
100
AcDbLine
 10
94.406311
 20
100.107925
 30
0.0
 11
94.406311
 21
73.107925
 31
0.0
210
0.0
220
0.0
230
1.0
  0
LINE
  5
31
100
AcDbEntity
  8
0
 62
   172
100
AcDbLine
 10
91.406311
 20
100.107925
 30
0.0
 11
91.406311
 21
73.107925
 31
0.0
210
0.0
220
0.0
230
1.0
  0
ARC
  5
32
100
AcDbEntity
  8
0
 62
   172
100
AcDbCircle
 10
95.906586
 20
73.108093
 30
0.0
 40
1.500291
210
0.0
220
0.0
230
1.0
100
AcDbArc
 50
180.00621
 51
239.993795
  0
ARC
  5
33
100
AcDbEntity
  8
0
 62
   172
100
AcDbCircle
 10
95.90715
 20
73.108414
 30
0.0
 40
4.500872
210
0.0
220
0.0
230
1.0
100
AcDbArc
 50
180.00621
 51
239.993795
  0
LINE
  5
34
100
AcDbEntity
  8
0
 62
   172
100
AcDbLine
 10
95.156311
 20
71.808891
 30
0.0
 11
118.538994
 21
58.308891
 31
0.0
210
0.0
220
0.0
230
1.0
  0
LINE
  5
35
100
AcDbEntity
  8
0
 62
   172
100
AcDbLine
 10
93.656311
 20
69.210815
 30
0.0
 11
112.88707
 21
58.107929
 31
0.0
210
0.0
220
0.0
230
1.0
  0
ARC
  5
36
100
AcDbEntity
  8
0
 62
   172
100
AcDbCircle
 10
119.288994
 20
59.608253
 30
0.0
 40
1.500291
210
0.0
220
0.0
230
1.0
100
AcDbArc
 50
240.006212
 51
299.993783
  0
LINE
  5
37
100
AcDbEntity
  8
0
 62
   172
 48
0.166459
100
AcDbLine
 10
105.20462
 20
92.029388
 30
0.0
 11
105.209702
 21
85.371017
 31
0.0
210
0.0
220
0.0
230
1.0
  0
LINE
  5
38
100
AcDbEntity
  8
0
 62
   172
 48
0.043965
100
AcDbLine
 10
105.209702
 20
85.371017
 30
0.0
 11
106.930763
 21
85.732491
 31
0.0
210
0.0
220
0.0
230
1.0
  0
LINE
  5
39
100
AcDbEntity
  8
0
 62
   172
 48
0.052153
100
AcDbLine
 10
106.930763
 20
85.732491
 30
0.0
 11
106.934662
 21
87.818588
 31
0.0
210
0.0
220
0.0
230
1.0
  0
LINE
  5
3A
100
AcDbEntity
  8
0
 62
   172
 48
0.009654
100
AcDbLine
 10
106.934662
 20
87.818588
 30
0.0
 11
106.937592
 21
88.204742
 31
0.0
210
0.0
220
0.0
230
1.0
  0
LINE
  5
3B
100
AcDbEntity
  8
0
 62
   172
 48
0.008991
100
AcDbLine
 10
106.937592
 20
88.204742
 30
0.0
 11
106.948914
 21
88.564209
 31
0.0
210
0.0
220
0.0
230
1.0
  0
LINE
  5
3C
100
AcDbEntity
  8
0
 62
   172
 48
0.008334
100
AcDbLine
 10
106.948914
 20
88.564209
 30
0.0
 11
106.968628
 21
88.897003
 31
0.0
210
0.0
220
0.0
230
1.0
  0
LINE
  5
3D
100
AcDbEntity
  8
0
 62
   172
 48
0.007685
100
AcDbLine
 10
106.968628
 20
88.897003
 30
0.0
 11
106.996735
 21
89.203102
 31
0.0
210
0.0
220
0.0
230
1.0
  0
LINE
  5
3E
100
AcDbEntity
  8
0
 62
   172
 48
0.007045
100
AcDbLine
 10
106.996735
 20
89.203102
 30
0.0
 11
107.033234
 21
89.482529
 31
0.0
210
0.0
220
0.0
230
1.0
  0
LINE
  5
3F
100
AcDbEntity
  8
0
 62
   172
 48
0.006417
100
AcDbLine
 10
107.033234
 20
89.482529
 30
0.0
 11
107.07811
 21
89.735268
 31
0.0
210
0.0
220
0.0
230
1.0
  0
LINE
  5
40
100
AcDbEntity
  8
0
 62
   172
 48
0.005807
100
AcDbLine
 10
107.07811
 20
89.735268
 30
0.0
 11
107.131393
 21
89.961334
 31
0.0
210
0.0
220
0.0
230
1.0
  0
LINE
  5
41
100
AcDbEntity
  8
0
 62
   172
 48
0.005217
100
AcDbLine
 10
107.131393
 20
89.961334
 30
0.0
 11
107.193054
 21
90.160706
 31
0.0
210
0.0
220
0.0
230
1.0
  0
LINE
  5
42
100
AcDbEntity
  8
0
 62
   172
 48
0.004659
100
AcDbLine
 10
107.193054
 20
90.160706
 30
0.0
 11
107.263115
 21
90.333405
 31
0.0
210
0.0
220
0.0
230
1.0
  0
LINE
  5
43
100
AcDbEntity
  8
0
 62
   172
 48
0.004144
100
AcDbLine
 10
107.263115
 20
90.333405
 30
0.0
 11
107.34156
 21
90.479416
 31
0.0
210
0.0
220
0.0
230
1.0
  0
LINE
  5
44
100
AcDbEntity
  8
0
 62
   172
 48
0.003835
100
AcDbLine
 10
107.34156
 20
90.479416
 30
0.0
 11
107.426895
 21
90.606888
 31
0.0
210
0.0
220
0.0
230
1.0
  0
LINE
  5
45
100
AcDbEntity
  8
0
 62
   172
 48
0.003702
100
AcDbLine
 10
107.426895
 20
90.606888
 30
0.0
 11
107.51757
 21
90.723953
 31
0.0
210
0.0
220
0.0
230
1.0
  0
LINE
  5
46
100
AcDbEntity
  8
0
 62
   172
 48
0.003588
100
AcDbLine
 10
107.51757
 20
90.723953
 30
0.0
 11
107.613609
 21
90.830612
 31
0.0
210
0.0
220
0.0
230
1.0
  0
LINE
  5
47
100
AcDbEntity
  8
0
 62
   172
 48
0.003495
100
AcDbLine
 10
107.613609
 20
90.830612
 30
0.0
 11
107.714996
 21
90.926865
 31
0.0
210
0.0
220
0.0
230
1.0
  0
LINE
  5
48
100
AcDbEntity
  8
0
 62
   172
 48
0.003425
100
AcDbLine
 10
107.714996
 20
90.926865
 30
0.0
 11
107.821747
 21
91.012703
 31
0.0
210
0.0
220
0.0
230
1.0
  0
LINE
  5
49
100
AcDbEntity
  8
0
 62
   172
 48
0.003378
100
AcDbLine
 10
107.821747
 20
91.012703
 30
0.0
 11
107.933861
 21
91.088142
 31
0.0
210
0.0
220
0.0
230
1.0
  0
LINE
  5
4A
100
AcDbEntity
  8
0
 62
   172
 48
0.003356
100
AcDbLine
 10
107.933861
 20
91.088142
 30
0.0
 11
108.051315
 21
91.153168
 31
0.0
210
0.0
220
0.0
230
1.0
  0
LINE
  5
4B
100
AcDbEntity
  8
0
 62
   172
 48
0.003361
100
AcDbLine
 10
108.051315
 20
91.153168
 30
0.0
 11
108.174149
 21
91.207794
 31
0.0
210
0.0
220
0.0
230
1.0
  0
LINE
  5
4C
100
AcDbEntity
  8
0
 62
   172
 48
0.00339
100
AcDbLine
 10
108.174149
 20
91.207794
 30
0.0
 11
108.302322
 21
91.252014
 31
0.0
210
0.0
220
0.0
230
1.0
  0
LINE
  5
4D
100
AcDbEntity
  8
0
 62
   172
 48
0.003444
100
AcDbLine
 10
108.302322
 20
91.252014
 30
0.0
 11
108.435852
 21
91.285828
 31
0.0
210
0.0
220
0.0
230
1.0
  0
LINE
  5
4E
100
AcDbEntity
  8
0
 62
   172
 48
0.001354
100
AcDbLine
 10
108.435852
 20
91.285828
 30
0.0
 11
108.489037
 21
91.296135
 31
0.0
210
0.0
220
0.0
230
1.0
  0
LINE
  5
4F
100
AcDbEntity
  8
0
 62
   172
 48
0.001337
100
AcDbLine
 10
108.489037
 20
91.296135
 30
0.0
 11
108.54184
 21
91.304626
 31
0.0
210
0.0
220
0.0
230
1.0
  0
LINE
  5
50
100
AcDbEntity
  8
0
 62
   172
 48
0.001321
100
AcDbLine
 10
108.54184
 20
91.304626
 30
0.0
 11
108.594254
 21
91.31131
 31
0.0
210
0.0
220
0.0
230
1.0
  0
LINE
  5
51
100
AcDbEntity
  8
0
 62
   172
 48
0.001306
100
AcDbLine
 10
108.594254
 20
91.31131
 30
0.0
 11
108.646271
 21
91.316185
 31
0.0
210
0.0
220
0.0
230
1.0
  0
LINE
  5
52
100
AcDbEntity
  8
0
 62
   172
 48
0.001293
100
AcDbLine
 10
108.646271
 20
91.316185
 30
0.0
 11
108.697899
 21
91.319244
 31
0.0
210
0.0
220
0.0
230
1.0
  0
LINE
  5
53
100
AcDbEntity
  8
0
 62
   172
 48
0.001282
100
AcDbLine
 10
108.697899
 20
91.319244
 30
0.0
 11
108.749153
 21
91.320496
 31
0.0
210
0.0
220
0.0
230
1.0
  0
LINE
  5
54
100
AcDbEntity
  8
0
 62
   172
 48
0.001271
100
AcDbLine
 10
108.749153
 20
91.320496
 30
0.0
 11
108.800003
 21
91.319931
 31
0.0
210
0.0
220
0.0
230
1.0
  0
LINE
  5
55
100
AcDbEntity
  8
0
 62
   172
 48
0.001263
100
AcDbLine
 10
108.800003
 20
91.319931
 30
0.0
 11
108.850471
 21
91.317558
 31
0.0
210
0.0
220
0.0
230
1.0
  0
LINE
  5
56
100
AcDbEntity
  8
0
 62
   172
 48
0.001256
100
AcDbLine
 10
108.850471
 20
91.317558
 30
0.0
 11
108.900551
 21
91.313377
 31
0.0
210
0.0
220
0.0
230
1.0
  0
LINE
  5
57
100
AcDbEntity
  8
0
 62
   172
 48
0.001251
100
AcDbLine
 10
108.900551
 20
91.313377
 30
0.0
 11
108.950249
 21
91.307381
 31
0.0
210
0.0
220
0.0
230
1.0
  0
LINE
  5
58
100
AcDbEntity
  8
0
 62
   172
 48
0.039756
100
AcDbLine
 10
108.950249
 20
91.307381
 30
0.0
 11
109.317139
 21
92.854706
 31
0.0
210
0.0
220
0.0
230
1.0
  0
LINE
  5
59
100
AcDbEntity
  8
0
 62
   172
 48
0.002347
100
AcDbLine
 10
109.317139
 20
92.854706
 30
0.0
 11
109.22522
 21
92.873741
 31
0.0
210
0.0
220
0.0
230
1.0
  0
LINE
  5
5A
100
AcDbEntity
  8
0
 62
   172
 48
0.002287
100
AcDbLine
 10
109.22522
 20
92.873741
 30
0.0
 11
109.135025
 21
92.889099
 31
0.0
210
0.0
220
0.0
230
1.0
  0
LINE
  5
5B
100
AcDbEntity
  8
0
 62
   172
 48
0.002231
100
AcDbLine
 10
109.135025
 20
92.889099
 30
0.0
 11
109.04657
 21
92.900795
 31
0.0
210
0.0
220
0.0
230
1.0
  0
LINE
  5
5C
100
AcDbEntity
  8
0
 62
   172
 48
0.002178
100
AcDbLine
 10
109.04657
 20
92.900795
 30
0.0
 11
108.959839
 21
92.908813
 31
0.0
210
0.0
220
0.0
230
1.0
  0
LINE
  5
5D
100
AcDbEntity
  8
0
 62
   172
 48
0.002128
100
AcDbLine
 10
108.959839
 20
92.908813
 30
0.0
 11
108.874847
 21
92.913162
 31
0.0
210
0.0
220
0.0
230
1.0
  0
LINE
  5
5E
100
AcDbEntity
  8
0
 62
   172
 48
0.002082
100
AcDbLine
 10
108.874847
 20
92.913162
 30
0.0
 11
108.79158
 21
92.913834
 31
0.0
210
0.0
220
0.0
230
1.0
  0
LINE
  5
5F
100
AcDbEntity
  8
0
 62
   172
 48
0.00204
100
AcDbLine
 10
108.79158
 20
92.913834
 30
0.0
 11
108.710045
 21
92.910835
 31
0.0
210
0.0
220
0.0
230
1.0
  0
LINE
  5
60
100
AcDbEntity
  8
0
 62
   172
 48
0.002002
100
AcDbLine
 10
108.710045
 20
92.910835
 30
0.0
 11
108.630249
 21
92.90416
 31
0.0
210
0.0
220
0.0
230
1.0
  0
LINE
  5
61
100
AcDbEntity
  8
0
 62
   172
 48
0.001969
100
AcDbLine
 10
108.630249
 20
92.90416
 30
0.0
 11
108.552177
 21
92.893822
 31
0.0
210
0.0
220
0.0
230
1.0
  0
LINE
  5
62
100
AcDbEntity
  8
0
 62
   172
 48
0.00194
100
AcDbLine
 10
108.552177
 20
92.893822
 30
0.0
 11
108.475845
 21
92.879807
 31
0.0
210
0.0
220
0.0
230
1.0
  0
LINE
  5
63
100
AcDbEntity
  8
0
 62
   172
 48
0.005335
100
AcDbLine
 10
108.475845
 20
92.879807
 30
0.0
 11
108.270386
 21
92.822144
 31
0.0
210
0.0
220
0.0
230
1.0
  0
LINE
  5
64
100
AcDbEntity
  8
0
 62
   172
 48
0.005355
100
AcDbLine
 10
108.270386
 20
92.822144
 30
0.0
 11
108.073723
 21
92.737305
 31
0.0
210
0.0
220
0.0
230
1.0
  0
LINE
  5
65
100
AcDbEntity
  8
0
 62
   172
 48
0.005468
100
AcDbLine
 10
108.073723
 20
92.737305
 30
0.0
 11
107.885841
 21
92.62529
 31
0.0
210
0.0
220
0.0
230
1.0
  0
LINE
  5
66
100
AcDbEntity
  8
0
 62
   172
 48
0.005671
100
AcDbLine
 10
107.885841
 20
92.62529
 30
0.0
 11
107.706741
 21
92.486099
 31
0.0
210
0.0
220
0.0
230
1.0
  0
LINE
  5
67
100
AcDbEntity
  8
0
 62
   172
 48
0.005952
100
AcDbLine
 10
107.706741
 20
92.486099
 30
0.0
 11
107.536423
 21
92.31974
 31
0.0
210
0.0
220
0.0
230
1.0
  0
LINE
  5
68
100
AcDbEntity
  8
0
 62
   172
 48
0.006303
100
AcDbLine
 10
107.536423
 20
92.31974
 30
0.0
 11
107.374886
 21
92.12619
 31
0.0
210
0.0
220
0.0
230
1.0
  0
LINE
  5
69
100
AcDbEntity
  8
0
 62
   172
 48
0.00671
100
AcDbLine
 10
107.374886
 20
92.12619
 30
0.0
 11
107.222137
 21
91.905472
 31
0.0
210
0.0
220
0.0
230
1.0
  0
LINE
  5
6A
100
AcDbEntity
  8
0
 62
   172
 48
0.007167
100
AcDbLine
 10
107.222137
 20
91.905472
 30
0.0
 11
107.078156
 21
91.657578
 31
0.0
210
0.0
220
0.0
230
1.0
  0
LINE
  5
6B
100
AcDbEntity
  8
0
 62
   172
 48
0.007662
100
AcDbLine
 10
107.078156
 20
91.657578
 30
0.0
 11
106.94297
 21
91.382507
 31
0.0
210
0.0
220
0.0
230
1.0
  0
LINE
  5
6C
100
AcDbEntity
  8
0
 62
   172
 48
0.00819
100
AcDbLine
 10
106.94297
 20
91.382507
 30
0.0
 11
106.816574
 21
91.080261
 31
0.0
210
0.0
220
0.0
230
1.0
  0
LINE
  5
6D
100
AcDbEntity
  8
0
 62
   172
 48
0.032185
100
AcDbLine
 10
106.816574
 20
91.080261
 30
0.0
 11
106.815247
 21
92.367668
 31
0.0
210
0.0
220
0.0
230
1.0
  0
LINE
  5
6E
100
AcDbEntity
  8
0
 62
   172
 48
0.041144
100
AcDbLine
 10
106.815247
 20
92.367668
 30
0.0
 11
105.20462
 21
92.029388
 31
0.0
210
0.0
220
0.0
230
1.0
  0
LINE
  5
6F
100
AcDbEntity
  8
0
 62
   172
 48
0.003731
100
AcDbLine
 10
111.565826
 20
91.481964
 30
0.0
 11
111.584206
 21
91.630058
 31
0.0
210
0.0
220
0.0
230
1.0
  0
LINE
  5
70
100
AcDbEntity
  8
0
 62
   172
 48
0.003523
100
AcDbLine
 10
111.584206
 20
91.630058
 30
0.0
 11
111.619438
 21
91.766518
 31
0.0
210
0.0
220
0.0
230
1.0
  0
LINE
  5
71
100
AcDbEntity
  8
0
 62
   172
 48
0.003381
100
AcDbLine
 10
111.619438
 20
91.766518
 30
0.0
 11
111.671547
 21
91.891335
 31
0.0
210
0.0
220
0.0
230
1.0
  0
LINE
  5
72
100
AcDbEntity
  8
0
 62
   172
 48
0.003313
100
AcDbLine
 10
111.671547
 20
91.891335
 30
0.0
 11
111.740509
 21
92.004517
 31
0.0
210
0.0
220
0.0
230
1.0
  0
LINE
  5
73
100
AcDbEntity
  8
0
 62
   172
 48
0.003323
100
AcDbLine
 10
111.740509
 20
92.004517
 30
0.0
 11
111.826332
 21
92.106041
 31
0.0
210
0.0
220
0.0
230
1.0
  0
LINE
  5
74
100
AcDbEntity
  8
0
 62
   172
 48
0.003412
100
AcDbLine
 10
111.826332
 20
92.106041
 30
0.0
 11
111.929016
 21
92.195938
 31
0.0
210
0.0
220
0.0
230
1.0
  0
LINE
  5
75
100
AcDbEntity
  8
0
 62
   172
 48
0.003572
100
AcDbLine
 10
111.929016
 20
92.195938
 30
0.0
 11
112.048553
 21
92.274185
 31
0.0
210
0.0
220
0.0
230
1.0
  0
LINE
  5
76
100
AcDbEntity
  8
0
 62
   172
 48
0.003795
100
AcDbLine
 10
112.048553
 20
92.274185
 30
0.0
 11
112.184952
 21
92.34079
 31
0.0
210
0.0
220
0.0
230
1.0
  0
LINE
  5
77
100
AcDbEntity
  8
0
 62
   172
 48
0.00407
100
AcDbLine
 10
112.184952
 20
92.34079
 30
0.0
 11
112.338211
 21
92.395752
 31
0.0
210
0.0
220
0.0
230
1.0
  0
LINE
  5
78
100
AcDbEntity
  8
0
 62
   172
 48
0.004389
100
AcDbLine
 10
112.338211
 20
92.395752
 30
0.0
 11
112.508331
 21
92.439072
 31
0.0
210
0.0
220
0.0
230
1.0
  0
LINE
  5
79
100
AcDbEntity
  8
0
 62
   172
 48
0.004292
100
AcDbLine
 10
112.508331
 20
92.439072
 30
0.0
 11
112.677582
 21
92.467804
 31
0.0
210
0.0
220
0.0
230
1.0
  0
LINE
  5
7A
100
AcDbEntity
  8
0
 62
   172
 48
0.00387
100
AcDbLine
 10
112.677582
 20
92.467804
 30
0.0
 11
112.831902
 21
92.479744
 31
0.0
210
0.0
220
0.0
230
1.0
  0
LINE
  5
7B
100
AcDbEntity
  8
0
 62
   172
 48
0.003487
100
AcDbLine
 10
112.831902
 20
92.479744
 30
0.0
 11
112.971298
 21
92.474907
 31
0.0
210
0.0
220
0.0
230
1.0
  0
LINE
  5
7C
100
AcDbEntity
  8
0
 62
   172
 48
0.003158
100
AcDbLine
 10
112.971298
 20
92.474907
 30
0.0
 11
113.095764
 21
92.453285
 31
0.0
210
0.0
220
0.0
230
1.0
  0
LINE
  5
7D
100
AcDbEntity
  8
0
 62
   172
 48
0.002902
100
AcDbLine
 10
113.095764
 20
92.453285
 30
0.0
 11
113.205307
 21
92.414886
 31
0.0
210
0.0
220
0.0
230
1.0
  0
LINE
  5
7E
100
AcDbEntity
  8
0
 62
   172
 48
0.002738
100
AcDbLine
 10
113.205307
 20
92.414886
 30
0.0
 11
113.299919
 21
92.359711
 31
0.0
210
0.0
220
0.0
230
1.0
  0
LINE
  5
7F
100
AcDbEntity
  8
0
 62
   172
 48
0.002684
100
AcDbLine
 10
113.299919
 20
92.359711
 30
0.0
 11
113.379616
 21
92.28775
 31
0.0
210
0.0
220
0.0
230
1.0
  0
LINE
  5
80
100
AcDbEntity
  8
0
 62
   172
 48
0.002746
100
AcDbLine
 10
113.379616
 20
92.28775
 30
0.0
 11
113.444374
 21
92.199013
 31
0.0
210
0.0
220
0.0
230
1.0
  0
LINE
  5
81
100
AcDbEntity
  8
0
 62
   172
 48
0.002917
100
AcDbLine
 10
113.444374
 20
92.199013
 30
0.0
 11
113.494209
 21
92.093491
 31
0.0
210
0.0
220
0.0
230
1.0
  0
LINE
  5
82
100
AcDbEntity
  8
0
 62
   172
 48
0.00318
100
AcDbLine
 10
113.494209
 20
92.093491
 30
0.0
 11
113.529129
 21
91.971191
 31
0.0
210
0.0
220
0.0
230
1.0
  0
LINE
  5
83
100
AcDbEntity
  8
0
 62
   172
 48
0.001119
100
AcDbLine
 10
113.529129
 20
91.971191
 30
0.0
 11
113.537224
 21
91.927155
 31
0.0
210
0.0
220
0.0
230
1.0
  0
LINE
  5
84
100
AcDbEntity
  8
0
 62
   172
 48
0.001197
100
AcDbLine
 10
113.537224
 20
91.927155
 30
0.0
 11
113.543732
 21
91.8797
 31
0.0
210
0.0
220
0.0
230
1.0
  0
LINE
  5
85
100
AcDbEntity
  8
0
 62
   172
 48
0.001277
100
AcDbLine
 10
113.543732
 20
91.8797
 30
0.0
 11
113.548645
 21
91.828842
 31
0.0
210
0.0
220
0.0
230
1.0
  0
LINE
  5
86
100
AcDbEntity
  8
0
 62
   172
 48
0.001359
100
AcDbLine
 10
113.548645
 20
91.828842
 30
0.0
 11
113.551971
 21
91.774574
 31
0.0
210
0.0
220
0.0
230
1.0
  0
LINE
  5
87
100
AcDbEntity
  8
0
 62
   172
 48
0.001443
100
AcDbLine
 10
113.551971
 20
91.774574
 30
0.0
 11
113.553711
 21
91.716896
 31
0.0
210
0.0
220
0.0
230
1.0
  0
LINE
  5
88
100
AcDbEntity
  8
0
 62
   172
 48
0.001527
100
AcDbLine
 10
113.553711
 20
91.716896
 30
0.0
 11
113.553856
 21
91.655807
 31
0.0
210
0.0
220
0.0
230
1.0
  0
LINE
  5
89
100
AcDbEntity
  8
0
 62
   172
 48
0.001613
100
AcDbLine
 10
113.553856
 20
91.655807
 30
0.0
 11
113.552406
 21
91.591316
 31
0.0
210
0.0
220
0.0
230
1.0
  0
LINE
  5
8A
100
AcDbEntity
  8
0
 62
   172
 48
0.001699
100
AcDbLine
 10
113.552406
 20
91.591316
 30
0.0
 11
113.54937
 21
91.523407
 31
0.0
210
0.0
220
0.0
230
1.0
  0
LINE
  5
8B
100
AcDbEntity
  8
0
 62
   172
 48
0.001787
100
AcDbLine
 10
113.54937
 20
91.523407
 30
0.0
 11
113.544746
 21
91.452095
 31
0.0
210
0.0
220
0.0
230
1.0
  0
LINE
  5
8C
100
AcDbEntity
  8
0
 62
   172
 48
0.001875
100
AcDbLine
 10
113.544746
 20
91.452095
 30
0.0
 11
113.538528
 21
91.377373
 31
0.0
210
0.0
220
0.0
230
1.0
  0
LINE
  5
8D
100
AcDbEntity
  8
0
 62
   172
 48
0.0024
100
AcDbLine
 10
113.538528
 20
91.377373
 30
0.0
 11
113.455254
 21
91.329613
 31
0.0
210
0.0
220
0.0
230
1.0
  0
LINE
  5
8E
100
AcDbEntity
  8
0
 62
   172
 48
0.002804
100
AcDbLine
 10
113.455254
 20
91.329613
 30
0.0
 11
113.355026
 21
91.279251
 31
0.0
210
0.0
220
0.0
230
1.0
  0
LINE
  5
8F
100
AcDbEntity
  8
0
 62
   172
 48
0.003214
100
AcDbLine
 10
113.355026
 20
91.279251
 30
0.0
 11
113.237862
 21
91.226295
 31
0.0
210
0.0
220
0.0
230
1.0
  0
LINE
  5
90
100
AcDbEntity
  8
0
 62
   172
 48
0.003629
100
AcDbLine
 10
113.237862
 20
91.226295
 30
0.0
 11
113.10376
 21
91.170746
 31
0.0
210
0.0
220
0.0
230
1.0
  0
LINE
  5
91
100
AcDbEntity
  8
0
 62
   172
 48
0.004047
100
AcDbLine
 10
113.10376
 20
91.170746
 30
0.0
 11
112.952698
 21
91.112587
 31
0.0
210
0.0
220
0.0
230
1.0
  0
LINE
  5
92
100
AcDbEntity
  8
0
 62
   172
 48
0.004466
100
AcDbLine
 10
112.952698
 20
91.112587
 30
0.0
 11
112.784706
 21
91.051834
 31
0.0
210
0.0
220
0.0
230
1.0
  0
LINE
  5
93
100
AcDbEntity
  8
0
 62
   172
 48
0.004887
100
AcDbLine
 10
112.784706
 20
91.051834
 30
0.0
 11
112.599762
 21
90.988495
 31
0.0
210
0.0
220
0.0
230
1.0
  0
LINE
  5
94
100
AcDbEntity
  8
0
 62
   172
 48
0.005309
100
AcDbLine
 10
112.599762
 20
90.988495
 30
0.0
 11
112.397888
 21
90.922546
 31
0.0
210
0.0
220
0.0
230
1.0
  0
LINE
  5
95
100
AcDbEntity
  8
0
 62
   172
 48
0.005733
100
AcDbLine
 10
112.397888
 20
90.922546
 30
0.0
 11
112.179054
 21
90.854004
 31
0.0
210
0.0
220
0.0
230
1.0
  0
LINE
  5
96
100
AcDbEntity
  8
0
 62
   172
 48
0.006157
100
AcDbLine
 10
112.179054
 20
90.854004
 30
0.0
 11
111.943283
 21
90.78286
 31
0.0
210
0.0
220
0.0
230
1.0
  0
LINE
  5
97
100
AcDbEntity
  8
0
 62
   172
 48
0.012683
100
AcDbLine
 10
111.943283
 20
90.78286
 30
0.0
 11
111.46228
 21
90.621582
 31
0.0
210
0.0
220
0.0
230
1.0
  0
LINE
  5
98
100
AcDbEntity
  8
0
 62
   172
 48
0.011514
100
AcDbLine
 10
111.46228
 20
90.621582
 30
0.0
 11
111.040405
 21
90.436783
 31
0.0
210
0.0
220
0.0
230
1.0
  0
LINE
  5
99
100
AcDbEntity
  8
0
 62
   172
 48
0.010457
100
AcDbLine
 10
111.040405
 20
90.436783
 30
0.0
 11
110.677681
 21
90.22847
 31
0.0
210
0.0
220
0.0
230
1.0
  0
LINE
  5
9A
100
AcDbEntity
  8
0
 62
   172
 48
0.00955
100
AcDbLine
 10
110.677681
 20
90.22847
 30
0.0
 11
110.374077
 21
89.996628
 31
0.0
210
0.0
220
0.0
230
1.0
  0
LINE
  5
9B
100
AcDbEntity
  8
0
 62
   172
 48
0.008837
100
AcDbLine
 10
110.374077
 20
89.996628
 30
0.0
 11
110.129623
 21
89.74128
 31
0.0
210
0.0
220
0.0
230
1.0
  0
LINE
  5
9C
100
AcDbEntity
  8
0
 62
   172
 48
0.008371
100
AcDbLine
 10
110.129623
 20
89.74128
 30
0.0
 11
109.944305
 21
89.462402
 31
0.0
210
0.0
220
0.0
230
1.0
  0
LINE
  5
9D
100
AcDbEntity
  8
0
 62
   172
 48
0.008192
100
AcDbLine
 10
109.944305
 20
89.462402
 30
0.0
 11
109.818123
 21
89.160011
 31
0.0
210
0.0
220
0.0
230
1.0
  0
LINE
  5
9E
100
AcDbEntity
  8
0
 62
   172
 48
0.008318
100
AcDbLine
 10
109.818123
 20
89.160011
 30
0.0
 11
109.751083
 21
88.834099
 31
0.0
210
0.0
220
0.0
230
1.0
  0
LINE
  5
9F
100
AcDbEntity
  8
0
 62
   172
 48
0.008738
100
AcDbLine
 10
109.751083
 20
88.834099
 30
0.0
 11
109.743172
 21
88.484665
 31
0.0
210
0.0
220
0.0
230
1.0
  0
LINE
  5
A0
100
AcDbEntity
  8
0
 62
   172
 48
0.009411
100
AcDbLine
 10
109.743172
 20
88.484665
 30
0.0
 11
109.794411
 21
88.111717
 31
0.0
210
0.0
220
0.0
230
1.0
  0
LINE
  5
A1
100
AcDbEntity
  8
0
 62
   172
 48
0.004066
100
AcDbLine
 10
109.794411
 20
88.111717
 30
0.0
 11
109.832932
 21
87.953705
 31
0.0
210
0.0
220
0.0
230
1.0
  0
LINE
  5
A2
100
AcDbEntity
  8
0
 62
   172
 48
0.003935
100
AcDbLine
 10
109.832932
 20
87.953705
 30
0.0
 11
109.880447
 21
87.803642
 31
0.0
210
0.0
220
0.0
230
1.0
  0
LINE
  5
A3
100
AcDbEntity
  8
0
 62
   172
 48
0.003824
100
AcDbLine
 10
109.880447
 20
87.803642
 30
0.0
 11
109.936958
 21
87.661514
 31
0.0
210
0.0
220
0.0
230
1.0
  0
LINE
  5
A4
100
AcDbEntity
  8
0
 62
   172
 48
0.003733
100
AcDbLine
 10
109.936958
 20
87.661514
 30
0.0
 11
110.002472
 21
87.527336
 31
0.0
210
0.0
220
0.0
230
1.0
  0
LINE
  5
A5
100
AcDbEntity
  8
0
 62
   172
 48
0.003665
100
AcDbLine
 10
110.002472
 20
87.527336
 30
0.0
 11
110.076988
 21
87.4011
 31
0.0
210
0.0
220
0.0
230
1.0
  0
LINE
  5
A6
100
AcDbEntity
  8
0
 62
   172
 48
0.00362
100
AcDbLine
 10
110.076988
 20
87.4011
 30
0.0
 11
110.1605
 21
87.282814
 31
0.0
210
0.0
220
0.0
230
1.0
  0
LINE
  5
A7
100
AcDbEntity
  8
0
 62
   172
 48
0.0036
100
AcDbLine
 10
110.1605
 20
87.282814
 30
0.0
 11
110.253006
 21
87.172462
 31
0.0
210
0.0
220
0.0
230
1.0
  0
LINE
  5
A8
100
AcDbEntity
  8
0
 62
   172
 48
0.003605
100
AcDbLine
 10
110.253006
 20
87.172462
 30
0.0
 11
110.354515
 21
87.070061
 31
0.0
210
0.0
220
0.0
230
1.0
  0
LINE
  5
A9
100
AcDbEntity
  8
0
 62
   172
 48
0.003635
100
AcDbLine
 10
110.354515
 20
87.070061
 30
0.0
 11
110.465027
 21
86.975601
 31
0.0
210
0.0
220
0.0
230
1.0
  0
LINE
  5
AA
100
AcDbEntity
  8
0
 62
   172
 48
0.003688
100
AcDbLine
 10
110.465027
 20
86.975601
 30
0.0
 11
110.584534
 21
86.889084
 31
0.0
210
0.0
220
0.0
230
1.0
  0
LINE
  5
AB
100
AcDbEntity
  8
0
 62
   172
 48
0.003686
100
AcDbLine
 10
110.584534
 20
86.889084
 30
0.0
 11
110.710426
 21
86.81237
 31
0.0
210
0.0
220
0.0
230
1.0
  0
LINE
  5
AC
100
AcDbEntity
  8
0
 62
   172
 48
0.003628
100
AcDbLine
 10
110.710426
 20
86.81237
 30
0.0
 11
110.840134
 21
86.747314
 31
0.0
210
0.0
220
0.0
230
1.0
  0
LINE
  5
AD
100
AcDbEntity
  8
0
 62
   172
 48
0.003594
100
AcDbLine
 10
110.840134
 20
86.747314
 30
0.0
 11
110.973625
 21
86.693909
 31
0.0
210
0.0
220
0.0
230
1.0
  0
LINE
  5
AE
100
AcDbEntity
  8
0
 62
   172
 48
0.003588
100
AcDbLine
 10
110.973625
 20
86.693909
 30
0.0
 11
111.110924
 21
86.652161
 31
0.0
210
0.0
220
0.0
230
1.0
  0
LINE
  5
AF
100
AcDbEntity
  8
0
 62
   172
 48
0.003607
100
AcDbLine
 10
111.110924
 20
86.652161
 30
0.0
 11
111.252014
 21
86.62207
 31
0.0
210
0.0
220
0.0
230
1.0
  0
LINE
  5
B0
100
AcDbEntity
  8
0
 62
   172
 48
0.003652
100
AcDbLine
 10
111.252014
 20
86.62207
 30
0.0
 11
111.396912
 21
86.603638
 31
0.0
210
0.0
220
0.0
230
1.0
  0
LINE
  5
B1
100
AcDbEntity
  8
0
 62
   172
 48
0.003721
100
AcDbLine
 10
111.396912
 20
86.603638
 30
0.0
 11
111.545593
 21
86.596863
 31
0.0
210
0.0
220
0.0
230
1.0
  0
LINE
  5
B2
100
AcDbEntity
  8
0
 62
   172
 48
0.003814
100
AcDbLine
 10
111.545593
 20
86.596863
 30
0.0
 11
111.69809
 21
86.601746
 31
0.0
210
0.0
220
0.0
230
1.0
  0
LINE
  5
B3
100
AcDbEntity
  8
0
 62
   172
 48
0.003929
100
AcDbLine
 10
111.69809
 20
86.601746
 30
0.0
 11
111.85437
 21
86.618279
 31
0.0
210
0.0
220
0.0
230
1.0
  0
LINE
  5
B4
100
AcDbEntity
  8
0
 62
   172
 48
0.004064
100
AcDbLine
 10
111.85437
 20
86.618279
 30
0.0
 11
112.014458
 21
86.646469
 31
0.0
210
0.0
220
0.0
230
1.0
  0
LINE
  5
B5
100
AcDbEntity
  8
0
 62
   172
 48
0.005431
100
AcDbLine
 10
112.014458
 20
86.646469
 30
0.0
 11
112.22506
 21
86.699738
 31
0.0
210
0.0
220
0.0
230
1.0
  0
LINE
  5
B6
100
AcDbEntity
  8
0
 62
   172
 48
0.005317
100
AcDbLine
 10
112.22506
 20
86.699738
 30
0.0
 11
112.42614
 21
86.769073
 31
0.0
210
0.0
220
0.0
230
1.0
  0
LINE
  5
B7
100
AcDbEntity
  8
0
 62
   172
 48
0.005243
100
AcDbLine
 10
112.42614
 20
86.769073
 30
0.0
 11
112.617691
 21
86.854469
 31
0.0
210
0.0
220
0.0
230
1.0
  0
LINE
  5
B8
100
AcDbEntity
  8
0
 62
   172
 48
0.00521
100
AcDbLine
 10
112.617691
 20
86.854469
 30
0.0
 11
112.799721
 21
86.955933
 31
0.0
210
0.0
220
0.0
230
1.0
  0
LINE
  5
B9
100
AcDbEntity
  8
0
 62
   172
 48
0.005218
100
AcDbLine
 10
112.799721
 20
86.955933
 30
0.0
 11
112.972221
 21
87.073456
 31
0.0
210
0.0
220
0.0
230
1.0
  0
LINE
  5
BA
100
AcDbEntity
  8
0
 62
   172
 48
0.005268
100
AcDbLine
 10
112.972221
 20
87.073456
 30
0.0
 11
113.135201
 21
87.207054
 31
0.0
210
0.0
220
0.0
230
1.0
  0
LINE
  5
BB
100
AcDbEntity
  8
0
 62
   172
 48
0.005359
100
AcDbLine
 10
113.135201
 20
87.207054
 30
0.0
 11
113.288658
 21
87.356712
 31
0.0
210
0.0
220
0.0
230
1.0
  0
LINE
  5
BC
100
AcDbEntity
  8
0
 62
   172
 48
0.005488
100
AcDbLine
 10
113.288658
 20
87.356712
 30
0.0
 11
113.432587
 21
87.522438
 31
0.0
210
0.0
220
0.0
230
1.0
  0
LINE
  5
BD
100
AcDbEntity
  8
0
 62
   172
 48
0.005652
100
AcDbLine
 10
113.432587
 20
87.522438
 30
0.0
 11
113.567001
 21
87.704224
 31
0.0
210
0.0
220
0.0
230
1.0
  0
LINE
  5
BE
100
AcDbEntity
  8
0
 62
   172
 48
0.005849
100
AcDbLine
 10
113.567001
 20
87.704224
 30
0.0
 11
113.691879
 21
87.902084
 31
0.0
210
0.0
220
0.0
230
1.0
  0
LINE
  5
BF
100
AcDbEntity
  8
0
 62
   172
 48
0.00188
100
AcDbLine
 10
113.691879
 20
87.902084
 30
0.0
 11
113.711899
 21
87.829605
 31
0.0
210
0.0
220
0.0
230
1.0
  0
LINE
  5
C0
100
AcDbEntity
  8
0
 62
   172
 48
0.001874
100
AcDbLine
 10
113.711899
 20
87.829605
 30
0.0
 11
113.733696
 21
87.757881
 31
0.0
210
0.0
220
0.0
230
1.0
  0
LINE
  5
C1
100
AcDbEntity
  8
0
 62
   172
 48
0.001869
100
AcDbLine
 10
113.733696
 20
87.757881
 30
0.0
 11
113.757256
 21
87.686913
 31
0.0
210
0.0
220
0.0
230
1.0
  0
LINE
  5
C2
100
AcDbEntity
  8
0
 62
   172
 48
0.001866
100
AcDbLine
 10
113.757256
 20
87.686913
 30
0.0
 11
113.78257
 21
87.616699
 31
0.0
210
0.0
220
0.0
230
1.0
  0
LINE
  5
C3
100
AcDbEntity
  8
0
 62
   172
 48
0.001864
100
AcDbLine
 10
113.78257
 20
87.616699
 30
0.0
 11
113.809647
 21
87.547241
 31
0.0
210
0.0
220
0.0
230
1.0
  0
LINE
  5
C4
100
AcDbEntity
  8
0
 62
   172
 48
0.001863
100
AcDbLine
 10
113.809647
 20
87.547241
 30
0.0
 11
113.838486
 21
87.478531
 31
0.0
210
0.0
220
0.0
230
1.0
  0
LINE
  5
C5
100
AcDbEntity
  8
0
 62
   172
 48
0.001863
100
AcDbLine
 10
113.838486
 20
87.478531
 30
0.0
 11
113.869095
 21
87.410591
 31
0.0
210
0.0
220
0.0
230
1.0
  0
LINE
  5
C6
100
AcDbEntity
  8
0
 62
   172
 48
0.001865
100
AcDbLine
 10
113.869095
 20
87.410591
 30
0.0
 11
113.901466
 21
87.343391
 31
0.0
210
0.0
220
0.0
230
1.0
  0
LINE
  5
C7
100
AcDbEntity
  8
0
 62
   172
 48
0.001867
100
AcDbLine
 10
113.901466
 20
87.343391
 30
0.0
 11
113.935608
 21
87.276955
 31
0.0
210
0.0
220
0.0
230
1.0
  0
LINE
  5
C8
100
AcDbEntity
  8
0
 62
   172
 48
0.001871
100
AcDbLine
 10
113.935608
 20
87.276955
 30
0.0
 11
113.971504
 21
87.211266
 31
0.0
210
0.0
220
0.0
230
1.0
  0
LINE
  5
C9
100
AcDbEntity
  8
0
 62
   172
 48
0.04279
100
AcDbLine
 10
113.971504
 20
87.211266
 30
0.0
 11
115.646553
 21
87.56308
 31
0.0
210
0.0
220
0.0
230
1.0
  0
LINE
  5
CA
100
AcDbEntity
  8
0
 62
   172
 48
0.002617
100
AcDbLine
 10
115.646553
 20
87.56308
 30
0.0
 11
115.597878
 21
87.655777
 31
0.0
210
0.0
220
0.0
230
1.0
  0
LINE
  5
CB
100
AcDbEntity
  8
0
 62
   172
 48
0.002557
100
AcDbLine
 10
115.597878
 20
87.655777
 30
0.0
 11
115.55249
 21
87.747429
 31
0.0
210
0.0
220
0.0
230
1.0
  0
LINE
  5
CC
100
AcDbEntity
  8
0
 62
   172
 48
0.002498
100
AcDbLine
 10
115.55249
 20
87.747429
 30
0.0
 11
115.510391
 21
87.838051
 31
0.0
210
0.0
220
0.0
230
1.0
  0
LINE
  5
CD
100
AcDbEntity
  8
0
 62
   172
 48
0.002441
100
AcDbLine
 10
115.510391
 20
87.838051
 30
0.0
 11
115.471581
 21
87.927628
 31
0.0
210
0.0
220
0.0
230
1.0
  0
LINE
  5
CE
100
AcDbEntity
  8
0
 62
   172
 48
0.002385
100
AcDbLine
 10
115.471581
 20
87.927628
 30
0.0
 11
115.436081
 21
88.016167
 31
0.0
210
0.0
220
0.0
230
1.0
  0
LINE
  5
CF
100
AcDbEntity
  8
0
 62
   172
 48
0.002331
100
AcDbLine
 10
115.436081
 20
88.016167
 30
0.0
 11
115.403862
 21
88.103676
 31
0.0
210
0.0
220
0.0
230
1.0
  0
LINE
  5
D0
100
AcDbEntity
  8
0
 62
   172
 48
0.002279
100
AcDbLine
 10
115.403862
 20
88.103676
 30
0.0
 11
115.374939
 21
88.19014
 31
0.0
210
0.0
220
0.0
230
1.0
  0
LINE
  5
D1
100
AcDbEntity
  8
0
 62
   172
 48
0.00223
100
AcDbLine
 10
115.374939
 20
88.19014
 30
0.0
 11
115.349304
 21
88.275566
 31
0.0
210
0.0
220
0.0
230
1.0
  0
LINE
  5
D2
100
AcDbEntity
  8
0
 62
   172
 48
0.002182
100
AcDbLine
 10
115.349304
 20
88.275566
 30
0.0
 11
115.326973
 21
88.359955
 31
0.0
210
0.0
220
0.0
230
1.0
  0
LINE
  5
D3
100
AcDbEntity
  8
0
 62
   172
 48
0.002138
100
AcDbLine
 10
115.326973
 20
88.359955
 30
0.0
 11
115.307922
 21
88.443306
 31
0.0
210
0.0
220
0.0
230
1.0
  0
LINE
  5
D4
100
AcDbEntity
  8
0
 62
   172
 48
0.002566
100
AcDbLine
 10
115.307922
 20
88.443306
 30
0.0
 11
115.289322
 21
88.544243
 31
0.0
210
0.0
220
0.0
230
1.0
  0
LINE
  5
D5
100
AcDbEntity
  8
0
 62
   172
 48
0.002905
100
AcDbLine
 10
115.289322
 20
88.544243
 30
0.0
 11
115.272949
 21
88.659286
 31
0.0
210
0.0
220
0.0
230
1.0
  0
LINE
  5
D6
100
AcDbEntity
  8
0
 62
   172
 48
0.003248
100
AcDbLine
 10
115.272949
 20
88.659286
 30
0.0
 11
115.258789
 21
88.788445
 31
0.0
210
0.0
220
0.0
230
1.0
  0
LINE
  5
D7
100
AcDbEntity
  8
0
 62
   172
 48
0.003594
100
AcDbLine
 10
115.258789
 20
88.788445
 30
0.0
 11
115.246857
 21
88.931717
 31
0.0
210
0.0
220
0.0
230
1.0
  0
LINE
  5
D8
100
AcDbEntity
  8
0
 62
   172
 48
0.003942
100
AcDbLine
 10
115.246857
 20
88.931717
 30
0.0
 11
115.237152
 21
89.089096
 31
0.0
210
0.0
220
0.0
230
1.0
  0
LINE
  5
D9
100
AcDbEntity
  8
0
 62
   172
 48
0.004292
100
AcDbLine
 10
115.237152
 20
89.089096
 30
0.0
 11
115.229675
 21
89.260605
 31
0.0
210
0.0
220
0.0
230
1.0
  0
LINE
  5
DA
100
AcDbEntity
  8
0
 62
   172
 48
0.004642
100
AcDbLine
 10
115.229675
 20
89.260605
 30
0.0
 11
115.224419
 21
89.446213
 31
0.0
210
0.0
220
0.0
230
1.0
  0
LINE
  5
DB
100
AcDbEntity
  8
0
 62
   172
 48
0.004994
100
AcDbLine
 10
115.224419
 20
89.446213
 30
0.0
 11
115.22139
 21
89.645935
 31
0.0
210
0.0
220
0.0
230
1.0
  0
LINE
  5
DC
100
AcDbEntity
  8
0
 62
   172
 48
0.005346
100
AcDbLine
 10
115.22139
 20
89.645935
 30
0.0
 11
115.220581
 21
89.859772
 31
0.0
210
0.0
220
0.0
230
1.0
  0
LINE
  5
DD
100
AcDbEntity
  8
0
 62
   172
 48
0.005699
100
AcDbLine
 10
115.220581
 20
89.859772
 30
0.0
 11
115.222008
 21
90.087723
 31
0.0
210
0.0
220
0.0
230
1.0
  0
LINE
  5
DE
100
AcDbEntity
  8
0
 62
   172
 48
0.009401
100
AcDbLine
 10
115.222008
 20
90.087723
 30
0.0
 11
115.225189
 21
90.46373
 31
0.0
210
0.0
220
0.0
230
1.0
  0
LINE
  5
DF
100
AcDbEntity
  8
0
 62
   172
 48
0.008649
100
AcDbLine
 10
115.225189
 20
90.46373
 30
0.0
 11
115.226051
 21
90.809669
 31
0.0
210
0.0
220
0.0
230
1.0
  0
LINE
  5
E0
100
AcDbEntity
  8
0
 62
   172
 48
0.007896
100
AcDbLine
 10
115.226051
 20
90.809669
 30
0.0
 11
115.224586
 21
91.125519
 31
0.0
210
0.0
220
0.0
230
1.0
  0
LINE
  5
E1
100
AcDbEntity
  8
0
 62
   172
 48
0.007144
100
AcDbLine
 10
115.224586
 20
91.125519
 30
0.0
 11
115.220772
 21
91.41127
 31
0.0
210
0.0
220
0.0
230
1.0
  0
LINE
  5
E2
100
AcDbEntity
  8
0
 62
   172
 48
0.006394
100
AcDbLine
 10
115.220772
 20
91.41127
 30
0.0
 11
115.214645
 21
91.666946
 31
0.0
210
0.0
220
0.0
230
1.0
  0
LINE
  5
E3
100
AcDbEntity
  8
0
 62
   172
 48
0.005644
100
AcDbLine
 10
115.214645
 20
91.666946
 30
0.0
 11
115.206184
 21
91.892532
 31
0.0
210
0.0
220
0.0
230
1.0
  0
LINE
  5
E4
100
AcDbEntity
  8
0
 62
   172
 48
0.004895
100
AcDbLine
 10
115.206184
 20
91.892532
 30
0.0
 11
115.195389
 21
92.088028
 31
0.0
210
0.0
220
0.0
230
1.0
  0
LINE
  5
E5
100
AcDbEntity
  8
0
 62
   172
 48
0.004148
100
AcDbLine
 10
115.195389
 20
92.088028
 30
0.0
 11
115.182266
 21
92.253441
 31
0.0
210
0.0
220
0.0
230
1.0
  0
LINE
  5
E6
100
AcDbEntity
  8
0
 62
   172
 48
0.003405
100
AcDbLine
 10
115.182266
 20
92.253441
 30
0.0
 11
115.166817
 21
92.388763
 31
0.0
210
0.0
220
0.0
230
1.0
  0
LINE
  5
E7
100
AcDbEntity
  8
0
 62
   172
 48
0.002668
100
AcDbLine
 10
115.166817
 20
92.388763
 30
0.0
 11
115.14904
 21
92.494003
 31
0.0
210
0.0
220
0.0
230
1.0
  0
LINE
  5
E8
100
AcDbEntity
  8
0
 62
   172
 48
0.004354
100
AcDbLine
 10
115.14904
 20
92.494003
 30
0.0
 11
115.106277
 21
92.662849
 31
0.0
210
0.0
220
0.0
230
1.0
  0
LINE
  5
E9
100
AcDbEntity
  8
0
 62
   172
 48
0.004153
100
AcDbLine
 10
115.106277
 20
92.662849
 30
0.0
 11
115.051437
 21
92.819641
 31
0.0
210
0.0
220
0.0
230
1.0
  0
LINE
  5
EA
100
AcDbEntity
  8
0
 62
   172
 48
0.003987
100
AcDbLine
 10
115.051437
 20
92.819641
 30
0.0
 11
114.98452
 21
92.964386
 31
0.0
210
0.0
220
0.0
230
1.0
  0
LINE
  5
EB
100
AcDbEntity
  8
0
 62
   172
 48
0.003861
100
AcDbLine
 10
114.98452
 20
92.964386
 30
0.0
 11
114.905525
 21
93.097076
 31
0.0
210
0.0
220
0.0
230
1.0
  0
LINE
  5
EC
100
AcDbEntity
  8
0
 62
   172
 48
0.003779
100
AcDbLine
 10
114.905525
 20
93.097076
 30
0.0
 11
114.814453
 21
93.217728
 31
0.0
210
0.0
220
0.0
230
1.0
  0
LINE
  5
ED
100
AcDbEntity
  8
0
 62
   172
 48
0.003744
100
AcDbLine
 10
114.814453
 20
93.217728
 30
0.0
 11
114.711311
 21
93.326324
 31
0.0
210
0.0
220
0.0
230
1.0
  0
LINE
  5
EE
100
AcDbEntity
  8
0
 62
   172
 48
0.003758
100
AcDbLine
 10
114.711311
 20
93.326324
 30
0.0
 11
114.596092
 21
93.422867
 31
0.0
210
0.0
220
0.0
230
1.0
  0
LINE
  5
EF
100
AcDbEntity
  8
0
 62
   172
 48
0.00382
100
AcDbLine
 10
114.596092
 20
93.422867
 30
0.0
 11
114.468788
 21
93.507355
 31
0.0
210
0.0
220
0.0
230
1.0
  0
LINE
  5
F0
100
AcDbEntity
  8
0
 62
   172
 48
0.003927
100
AcDbLine
 10
114.468788
 20
93.507355
 30
0.0
 11
114.329422
 21
93.579803
 31
0.0
210
0.0
220
0.0
230
1.0
  0
LINE
  5
F1
100
AcDbEntity
  8
0
 62
   172
 48
0.004076
100
AcDbLine
 10
114.329422
 20
93.579803
 30
0.0
 11
114.177979
 21
93.640198
 31
0.0
210
0.0
220
0.0
230
1.0
  0
LINE
  5
F2
100
AcDbEntity
  8
0
 62
   172
 48
0.004181
100
AcDbLine
 10
114.177979
 20
93.640198
 30
0.0
 11
114.018242
 21
93.689728
 31
0.0
210
0.0
220
0.0
230
1.0
  0
LINE
  5
F3
100
AcDbEntity
  8
0
 62
   172
 48
0.004225
100
AcDbLine
 10
114.018242
 20
93.689728
 30
0.0
 11
113.854012
 21
93.729561
 31
0.0
210
0.0
220
0.0
230
1.0
  0
LINE
  5
F4
100
AcDbEntity
  8
0
 62
   172
 48
0.004285
100
AcDbLine
 10
113.854012
 20
93.729561
 30
0.0
 11
113.685272
 21
93.759705
 31
0.0
210
0.0
220
0.0
230
1.0
  0
LINE
  5
F5
100
AcDbEntity
  8
0
 62
   172
 48
0.004361
100
AcDbLine
 10
113.685272
 20
93.759705
 30
0.0
 11
113.512039
 21
93.780159
 31
0.0
210
0.0
220
0.0
230
1.0
  0
LINE
  5
F6
100
AcDbEntity
  8
0
 62
   172
 48
0.004452
100
AcDbLine
 10
113.512039
 20
93.780159
 30
0.0
 11
113.334305
 21
93.790924
 31
0.0
210
0.0
220
0.0
230
1.0
  0
LINE
  5
F7
100
AcDbEntity
  8
0
 62
   172
 48
0.004556
100
AcDbLine
 10
113.334305
 20
93.790924
 30
0.0
 11
113.152077
 21
93.792007
 31
0.0
210
0.0
220
0.0
230
1.0
  0
LINE
  5
F8
100
AcDbEntity
  8
0
 62
   172
 48
0.004673
100
AcDbLine
 10
113.152077
 20
93.792007
 30
0.0
 11
112.965355
 21
93.783394
 31
0.0
210
0.0
220
0.0
230
1.0
  0
LINE
  5
F9
100
AcDbEntity
  8
0
 62
   172
 48
0.004803
100
AcDbLine
 10
112.965355
 20
93.783394
 30
0.0
 11
112.774117
 21
93.765091
 31
0.0
210
0.0
220
0.0
230
1.0
  0
LINE
  5
FA
100
AcDbEntity
  8
0
 62
   172
 48
0.004943
100
AcDbLine
 10
112.774117
 20
93.765091
 30
0.0
 11
112.578392
 21
93.737099
 31
0.0
210
0.0
220
0.0
230
1.0
  0
LINE
  5
FB
100
AcDbEntity
  8
0
 62
   172
 48
0.005094
100
AcDbLine
 10
112.578392
 20
93.737099
 30
0.0
 11
112.378159
 21
93.699417
 31
0.0
210
0.0
220
0.0
230
1.0
  0
LINE
  5
FC
100
AcDbEntity
  8
0
 62
   172
 48
0.01129
100
AcDbLine
 10
112.378159
 20
93.699417
 30
0.0
 11
111.940399
 21
93.58844
 31
0.0
210
0.0
220
0.0
230
1.0
  0
LINE
  5
FD
100
AcDbEntity
  8
0
 62
   172
 48
0.010518
100
AcDbLine
 10
111.940399
 20
93.58844
 30
0.0
 11
111.543793
 21
93.448067
 31
0.0
210
0.0
220
0.0
230
1.0
  0
LINE
  5
FE
100
AcDbEntity
  8
0
 62
   172
 48
0.009848
100
AcDbLine
 10
111.543793
 20
93.448067
 30
0.0
 11
111.188347
 21
93.278275
 31
0.0
210
0.0
220
0.0
230
1.0
  0
LINE
  5
FF
100
AcDbEntity
  8
0
 62
   172
 48
0.009303
100
AcDbLine
 10
111.188347
 20
93.278275
 30
0.0
 11
110.874046
 21
93.079071
 31
0.0
210
0.0
220
0.0
230
1.0
  0
LINE
  5
100
100
AcDbEntity
  8
0
 62
   172
 48
0.008904
100
AcDbLine
 10
110.874046
 20
93.079071
 30
0.0
 11
110.600922
 21
92.850464
 31
0.0
210
0.0
220
0.0
230
1.0
  0
LINE
  5
101
100
AcDbEntity
  8
0
 62
   172
 48
0.008674
100
AcDbLine
 10
110.600922
 20
92.850464
 30
0.0
 11
110.368942
 21
92.592445
 31
0.0
210
0.0
220
0.0
230
1.0
  0
LINE
  5
102
100
AcDbEntity
  8
0
 62
   172
 48
0.008625
100
AcDbLine
 10
110.368942
 20
92.592445
 30
0.0
 11
110.178116
 21
92.305016
 31
0.0
210
0.0
220
0.0
230
1.0
  0
LINE
  5
103
100
AcDbEntity
  8
0
 62
   172
 48
0.00876
100
AcDbLine
 10
110.178116
 20
92.305016
 30
0.0
 11
110.028442
 21
91.988174
 31
0.0
210
0.0
220
0.0
230
1.0
  0
LINE
  5
104
100
AcDbEntity
  8
0
 62
   172
 48
0.009071
100
AcDbLine
 10
110.028442
 20
91.988174
 30
0.0
 11
109.919937
 21
91.641922
 31
0.0
210
0.0
220
0.0
230
1.0
  0
LINE
  5
105
100
AcDbEntity
  8
0
 62
   172
 48
0.009541
100
AcDbLine
 10
109.919937
 20
91.641922
 30
0.0
 11
109.85257
 21
91.266266
 31
0.0
210
0.0
220
0.0
230
1.0
  0
LINE
  5
106
100
AcDbEntity
  8
0
 62
   172
 48
0.04317
100
AcDbLine
 10
109.85257
 20
91.266266
 30
0.0
 11
111.565826
 21
91.481964
 31
0.0
210
0.0
220
0.0
230
1.0
  0
LINE
  5
107
100
AcDbEntity
  8
0
 62
   172
 48
0.000939
100
AcDbLine
 10
113.540405
 20
90.224617
 30
0.0
 11
113.506683
 21
90.208115
 31
0.0
210
0.0
220
0.0
230
1.0
  0
LINE
  5
108
100
AcDbEntity
  8
0
 62
   172
 48
0.000968
100
AcDbLine
 10
113.506683
 20
90.208115
 30
0.0
 11
113.471588
 21
90.191711
 31
0.0
210
0.0
220
0.0
230
1.0
  0
LINE
  5
109
100
AcDbEntity
  8
0
 62
   172
 48
0.000998
100
AcDbLine
 10
113.471588
 20
90.191711
 30
0.0
 11
113.435143
 21
90.175407
 31
0.0
210
0.0
220
0.0
230
1.0
  0
LINE
  5
10A
100
AcDbEntity
  8
0
 62
   172
 48
0.001029
100
AcDbLine
 10
113.435143
 20
90.175407
 30
0.0
 11
113.397316
 21
90.159203
 31
0.0
210
0.0
220
0.0
230
1.0
  0
LINE
  5
10B
100
AcDbEntity
  8
0
 62
   172
 48
0.001059
100
AcDbLine
 10
113.397316
 20
90.159203
 30
0.0
 11
113.358131
 21
90.143089
 31
0.0
210
0.0
220
0.0
230
1.0
  0
LINE
  5
10C
100
AcDbEntity
  8
0
 62
   172
 48
0.00109
100
AcDbLine
 10
113.358131
 20
90.143089
 30
0.0
 11
113.317581
 21
90.127075
 31
0.0
210
0.0
220
0.0
230
1.0
  0
LINE
  5
10D
100
AcDbEntity
  8
0
 62
   172
 48
0.001121
100
AcDbLine
 10
113.317581
 20
90.127075
 30
0.0
 11
113.275665
 21
90.11116
 31
0.0
210
0.0
220
0.0
230
1.0
  0
LINE
  5
10E
100
AcDbEntity
  8
0
 62
   172
 48
0.001152
100
AcDbLine
 10
113.275665
 20
90.11116
 30
0.0
 11
113.232376
 21
90.095345
 31
0.0
210
0.0
220
0.0
230
1.0
  0
LINE
  5
10F
100
AcDbEntity
  8
0
 62
   172
 48
0.001183
100
AcDbLine
 10
113.232376
 20
90.095345
 30
0.0
 11
113.187729
 21
90.07962
 31
0.0
210
0.0
220
0.0
230
1.0
  0
LINE
  5
110
100
AcDbEntity
  8
0
 62
   172
 48
0.001215
100
AcDbLine
 10
113.187729
 20
90.07962
 30
0.0
 11
113.141708
 21
90.064003
 31
0.0
210
0.0
220
0.0
230
1.0
  0
LINE
  5
111
100
AcDbEntity
  8
0
 62
   172
 48
0.00517
100
AcDbLine
 10
113.141708
 20
90.064003
 30
0.0
 11
112.946716
 21
89.995178
 31
0.0
210
0.0
220
0.0
230
1.0
  0
LINE
  5
112
100
AcDbEntity
  8
0
 62
   172
 48
0.004894
100
AcDbLine
 10
112.946716
 20
89.995178
 30
0.0
 11
112.76326
 21
89.926857
 31
0.0
210
0.0
220
0.0
230
1.0
  0
LINE
  5
113
100
AcDbEntity
  8
0
 62
   172
 48
0.004621
100
AcDbLine
 10
112.76326
 20
89.926857
 30
0.0
 11
112.591324
 21
89.859032
 31
0.0
210
0.0
220
0.0
230
1.0
  0
LINE
  5
114
100
AcDbEntity
  8
0
 62
   172
 48
0.004349
100
AcDbLine
 10
112.591324
 20
89.859032
 30
0.0
 11
112.430901
 21
89.79171
 31
0.0
210
0.0
220
0.0
230
1.0
  0
LINE
  5
115
100
AcDbEntity
  8
0
 62
   172
 48
0.00408
100
AcDbLine
 10
112.430901
 20
89.79171
 30
0.0
 11
112.282005
 21
89.724884
 31
0.0
210
0.0
220
0.0
230
1.0
  0
LINE
  5
116
100
AcDbEntity
  8
0
 62
   172
 48
0.003814
100
AcDbLine
 10
112.282005
 20
89.724884
 30
0.0
 11
112.144638
 21
89.658554
 31
0.0
210
0.0
220
0.0
230
1.0
  0
LINE
  5
117
100
AcDbEntity
  8
0
 62
   172
 48
0.003551
100
AcDbLine
 10
112.144638
 20
89.658554
 30
0.0
 11
112.018784
 21
89.59272
 31
0.0
210
0.0
220
0.0
230
1.0
  0
LINE
  5
118
100
AcDbEntity
  8
0
 62
   172
 48
0.003292
100
AcDbLine
 10
112.018784
 20
89.59272
 30
0.0
 11
111.904465
 21
89.52739
 31
0.0
210
0.0
220
0.0
230
1.0
  0
LINE
  5
119
100
AcDbEntity
  8
0
 62
   172
 48
0.003039
100
AcDbLine
 10
111.904465
 20
89.52739
 30
0.0
 11
111.801659
 21
89.462555
 31
0.0
210
0.0
220
0.0
230
1.0
  0
LINE
  5
11A
100
AcDbEntity
  8
0
 62
   172
 48
0.002792
100
AcDbLine
 10
111.801659
 20
89.462555
 30
0.0
 11
111.710381
 21
89.398209
 31
0.0
210
0.0
220
0.0
230
1.0
  0
LINE
  5
11B
100
AcDbEntity
  8
0
 62
   172
 48
0.002591
100
AcDbLine
 10
111.710381
 20
89.398209
 30
0.0
 11
111.630119
 21
89.332642
 31
0.0
210
0.0
220
0.0
230
1.0
  0
LINE
  5
11C
100
AcDbEntity
  8
0
 62
   172
 48
0.002445
100
AcDbLine
 10
111.630119
 20
89.332642
 30
0.0
 11
111.560387
 21
89.264084
 31
0.0
210
0.0
220
0.0
230
1.0
  0
LINE
  5
11D
100
AcDbEntity
  8
0
 62
   172
 48
0.002321
100
AcDbLine
 10
111.560387
 20
89.264084
 30
0.0
 11
111.501183
 21
89.192551
 31
0.0
210
0.0
220
0.0
230
1.0
  0
LINE
  5
11E
100
AcDbEntity
  8
0
 62
   172
 48
0.002225
100
AcDbLine
 10
111.501183
 20
89.192551
 30
0.0
 11
111.452499
 21
89.118027
 31
0.0
210
0.0
220
0.0
230
1.0
  0
LINE
  5
11F
100
AcDbEntity
  8
0
 62
   172
 48
0.002159
100
AcDbLine
 10
111.452499
 20
89.118027
 30
0.0
 11
111.41433
 21
89.040543
 31
0.0
210
0.0
220
0.0
230
1.0
  0
LINE
  5
120
100
AcDbEntity
  8
0
 62
   172
 48
0.002127
100
AcDbLine
 10
111.41433
 20
89.040543
 30
0.0
 11
111.386703
 21
88.960068
 31
0.0
210
0.0
220
0.0
230
1.0
  0
LINE
  5
121
100
AcDbEntity
  8
0
 62
   172
 48
0.00213
100
AcDbLine
 10
111.386703
 20
88.960068
 30
0.0
 11
111.369576
 21
88.876617
 31
0.0
210
0.0
220
0.0
230
1.0
  0
LINE
  5
122
100
AcDbEntity
  8
0
 62
   172
 48
0.002167
100
AcDbLine
 10
111.369576
 20
88.876617
 30
0.0
 11
111.362991
 21
88.790192
 31
0.0
210
0.0
220
0.0
230
1.0
  0
LINE
  5
123
100
AcDbEntity
  8
0
 62
   172
 48
0.002237
100
AcDbLine
 10
111.362991
 20
88.790192
 30
0.0
 11
111.36692
 21
88.700783
 31
0.0
210
0.0
220
0.0
230
1.0
  0
LINE
  5
124
100
AcDbEntity
  8
0
 62
   172
 48
0.002338
100
AcDbLine
 10
111.36692
 20
88.700783
 30
0.0
 11
111.381371
 21
88.608391
 31
0.0
210
0.0
220
0.0
230
1.0
  0
LINE
  5
125
100
AcDbEntity
  8
0
 62
   172
 48
0.00349
100
AcDbLine
 10
111.381371
 20
88.608391
 30
0.0
 11
111.417938
 21
88.473663
 31
0.0
210
0.0
220
0.0
230
1.0
  0
LINE
  5
126
100
AcDbEntity
  8
0
 62
   172
 48
0.003176
100
AcDbLine
 10
111.417938
 20
88.473663
 30
0.0
 11
111.467308
 21
88.356606
 31
0.0
210
0.0
220
0.0
230
1.0
  0
LINE
  5
127
100
AcDbEntity
  8
0
 62
   172
 48
0.002931
100
AcDbLine
 10
111.467308
 20
88.356606
 30
0.0
 11
111.52951
 21
88.25724
 31
0.0
210
0.0
220
0.0
230
1.0
  0
LINE
  5
128
100
AcDbEntity
  8
0
 62
   172
 48
0.002772
100
AcDbLine
 10
111.52951
 20
88.25724
 30
0.0
 11
111.604507
 21
88.175552
 31
0.0
210
0.0
220
0.0
230
1.0
  0
LINE
  5
129
100
AcDbEntity
  8
0
 62
   172
 48
0.002717
100
AcDbLine
 10
111.604507
 20
88.175552
 30
0.0
 11
111.692329
 21
88.111542
 31
0.0
210
0.0
220
0.0
230
1.0
  0
LINE
  5
12A
100
AcDbEntity
  8
0
 62
   172
 48
0.00277
100
AcDbLine
 10
111.692329
 20
88.111542
 30
0.0
 11
111.792969
 21
88.065224
 31
0.0
210
0.0
220
0.0
230
1.0
  0
LINE
  5
12B
100
AcDbEntity
  8
0
 62
   172
 48
0.002925
100
AcDbLine
 10
111.792969
 20
88.065224
 30
0.0
 11
111.906418
 21
88.036583
 31
0.0
210
0.0
220
0.0
230
1.0
  0
LINE
  5
12C
100
AcDbEntity
  8
0
 62
   172
 48
0.003169
100
AcDbLine
 10
111.906418
 20
88.036583
 30
0.0
 11
112.032692
 21
88.02562
 31
0.0
210
0.0
220
0.0
230
1.0
  0
LINE
  5
12D
100
AcDbEntity
  8
0
 62
   172
 48
0.003481
100
AcDbLine
 10
112.032692
 20
88.02562
 30
0.0
 11
112.171768
 21
88.032349
 31
0.0
210
0.0
220
0.0
230
1.0
  0
LINE
  5
12E
100
AcDbEntity
  8
0
 62
   172
 48
0.003846
100
AcDbLine
 10
112.171768
 20
88.032349
 30
0.0
 11
112.323654
 21
88.056755
 31
0.0
210
0.0
220
0.0
230
1.0
  0
LINE
  5
12F
100
AcDbEntity
  8
0
 62
   172
 48
0.006124
100
AcDbLine
 10
112.323654
 20
88.056755
 30
0.0
 11
112.559502
 21
88.123009
 31
0.0
210
0.0
220
0.0
230
1.0
  0
LINE
  5
130
100
AcDbEntity
  8
0
 62
   172
 48
0.005768
100
AcDbLine
 10
112.559502
 20
88.123009
 30
0.0
 11
112.77002
 21
88.217392
 31
0.0
210
0.0
220
0.0
230
1.0
  0
LINE
  5
131
100
AcDbEntity
  8
0
 62
   172
 48
0.005551
100
AcDbLine
 10
112.77002
 20
88.217392
 30
0.0
 11
112.955215
 21
88.33989
 31
0.0
210
0.0
220
0.0
230
1.0
  0
LINE
  5
132
100
AcDbEntity
  8
0
 62
   172
 48
0.005491
100
AcDbLine
 10
112.955215
 20
88.33989
 30
0.0
 11
113.115089
 21
88.490509
 31
0.0
210
0.0
220
0.0
230
1.0
  0
LINE
  5
133
100
AcDbEntity
  8
0
 62
   172
 48
0.005594
100
AcDbLine
 10
113.115089
 20
88.490509
 30
0.0
 11
113.249664
 21
88.669266
 31
0.0
210
0.0
220
0.0
230
1.0
  0
LINE
  5
134
100
AcDbEntity
  8
0
 62
   172
 48
0.005848
100
AcDbLine
 10
113.249664
 20
88.669266
 30
0.0
 11
113.35891
 21
88.876129
 31
0.0
210
0.0
220
0.0
230
1.0
  0
LINE
  5
135
100
AcDbEntity
  8
0
 62
   172
 48
0.006238
100
AcDbLine
 10
113.35891
 20
88.876129
 30
0.0
 11
113.442833
 21
89.11113
 31
0.0
210
0.0
220
0.0
230
1.0
  0
LINE
  5
136
100
AcDbEntity
  8
0
 62
   172
 48
0.006739
100
AcDbLine
 10
113.442833
 20
89.11113
 30
0.0
 11
113.50145
 21
89.374252
 31
0.0
210
0.0
220
0.0
230
1.0
  0
LINE
  5
137
100
AcDbEntity
  8
0
 62
   172
 48
0.007329
100
AcDbLine
 10
113.50145
 20
89.374252
 30
0.0
 11
113.534744
 21
89.665497
 31
0.0
210
0.0
220
0.0
230
1.0
  0
LINE
  5
138
100
AcDbEntity
  8
0
 62
   172
 48
0.007987
100
AcDbLine
 10
113.534744
 20
89.665497
 30
0.0
 11
113.542709
 21
89.984863
 31
0.0
210
0.0
220
0.0
230
1.0
  0
LINE
  5
139
100
AcDbEntity
  8
0
 62
   172
 48
0.005994
100
AcDbLine
 10
113.542709
 20
89.984863
 30
0.0
 11
113.540405
 21
90.224617
 31
0.0
210
0.0
220
0.0
230
1.0
  0
LINE
  5
13A
100
AcDbEntity
  8
0
 62
   172
 48
0.166459
100
AcDbLine
 10
116.957588
 20
94.497879
 30
0.0
 11
116.962669
 21
87.839508
 31
0.0
210
0.0
220
0.0
230
1.0
  0
LINE
  5
13B
100
AcDbEntity
  8
0
 62
   172
 48
0.043966
100
AcDbLine
 10
116.962669
 20
87.839508
 30
0.0
 11
118.683739
 21
88.200989
 31
0.0
210
0.0
220
0.0
230
1.0
  0
LINE
  5
13C
100
AcDbEntity
  8
0
 62
   172
 48
0.068475
100
AcDbLine
 10
118.683739
 20
88.200989
 30
0.0
 11
118.685036
 21
90.939987
 31
0.0
210
0.0
220
0.0
230
1.0
  0
LINE
  5
13D
100
AcDbEntity
  8
0
 62
   172
 48
0.007391
100
AcDbLine
 10
118.685036
 20
90.939987
 30
0.0
 11
118.688576
 21
91.235603
 31
0.0
210
0.0
220
0.0
230
1.0
  0
LINE
  5
13E
100
AcDbEntity
  8
0
 62
   172
 48
0.006997
100
AcDbLine
 10
118.688576
 20
91.235603
 30
0.0
 11
118.699898
 21
91.515259
 31
0.0
210
0.0
220
0.0
230
1.0
  0
LINE
  5
13F
100
AcDbEntity
  8
0
 62
   172
 48
0.00661
100
AcDbLine
 10
118.699898
 20
91.515259
 30
0.0
 11
118.718987
 21
91.778976
 31
0.0
210
0.0
220
0.0
230
1.0
  0
LINE
  5
140
100
AcDbEntity
  8
0
 62
   172
 48
0.00623
100
AcDbLine
 10
118.718987
 20
91.778976
 30
0.0
 11
118.745842
 21
92.026726
 31
0.0
210
0.0
220
0.0
230
1.0
  0
LINE
  5
141
100
AcDbEntity
  8
0
 62
   172
 48
0.005859
100
AcDbLine
 10
118.745842
 20
92.026726
 30
0.0
 11
118.780472
 21
92.25853
 31
0.0
210
0.0
220
0.0
230
1.0
  0
LINE
  5
142
100
AcDbEntity
  8
0
 62
   172
 48
0.005499
100
AcDbLine
 10
118.780472
 20
92.25853
 30
0.0
 11
118.822868
 21
92.474373
 31
0.0
210
0.0
220
0.0
230
1.0
  0
LINE
  5
143
100
AcDbEntity
  8
0
 62
   172
 48
0.005152
100
AcDbLine
 10
118.822868
 20
92.474373
 30
0.0
 11
118.873047
 21
92.674271
 31
0.0
210
0.0
220
0.0
230
1.0
  0
LINE
  5
144
100
AcDbEntity
  8
0
 62
   172
 48
0.004821
100
AcDbLine
 10
118.873047
 20
92.674271
 30
0.0
 11
118.930992
 21
92.858208
 31
0.0
210
0.0
220
0.0
230
1.0
  0
LINE
  5
145
100
AcDbEntity
  8
0
 62
   172
 48
0.00451
100
AcDbLine
 10
118.930992
 20
92.858208
 30
0.0
 11
118.996696
 21
93.026199
 31
0.0
210
0.0
220
0.0
230
1.0
  0
LINE
  5
146
100
AcDbEntity
  8
0
 62
   172
 48
0.004221
100
AcDbLine
 10
118.996696
 20
93.026199
 30
0.0
 11
119.070183
 21
93.17823
 31
0.0
210
0.0
220
0.0
230
1.0
  0
LINE
  5
147
100
AcDbEntity
  8
0
 62
   172
 48
0.003995
100
AcDbLine
 10
119.070183
 20
93.17823
 30
0.0
 11
119.150314
 21
93.316483
 31
0.0
210
0.0
220
0.0
230
1.0
  0
LINE
  5
148
100
AcDbEntity
  8
0
 62
   172
 48
0.003821
100
AcDbLine
 10
119.150314
 20
93.316483
 30
0.0
 11
119.235954
 21
93.4431
 31
0.0
210
0.0
220
0.0
230
1.0
  0
LINE
  5
149
100
AcDbEntity
  8
0
 62
   172
 48
0.003669
100
AcDbLine
 10
119.235954
 20
93.4431
 30
0.0
 11
119.327118
 21
93.558105
 31
0.0
210
0.0
220
0.0
230
1.0
  0
LINE
  5
14A
100
AcDbEntity
  8
0
 62
   172
 48
0.003539
100
AcDbLine
 10
119.327118
 20
93.558105
 30
0.0
 11
119.423798
 21
93.661484
 31
0.0
210
0.0
220
0.0
230
1.0
  0
LINE
  5
14B
100
AcDbEntity
  8
0
 62
   172
 48
0.003433
100
AcDbLine
 10
119.423798
 20
93.661484
 30
0.0
 11
119.525993
 21
93.753235
 31
0.0
210
0.0
220
0.0
230
1.0
  0
LINE
  5
14C
100
AcDbEntity
  8
0
 62
   172
 48
0.003356
100
AcDbLine
 10
119.525993
 20
93.753235
 30
0.0
 11
119.633698
 21
93.833374
 31
0.0
210
0.0
220
0.0
230
1.0
  0
LINE
  5
14D
100
AcDbEntity
  8
0
 62
   172
 48
0.003309
100
AcDbLine
 10
119.633698
 20
93.833374
 30
0.0
 11
119.746925
 21
93.901886
 31
0.0
210
0.0
220
0.0
230
1.0
  0
LINE
  5
14E
100
AcDbEntity
  8
0
 62
   172
 48
0.003292
100
AcDbLine
 10
119.746925
 20
93.901886
 30
0.0
 11
119.865662
 21
93.958778
 31
0.0
210
0.0
220
0.0
230
1.0
  0
LINE
  5
14F
100
AcDbEntity
  8
0
 62
   172
 48
0.003306
100
AcDbLine
 10
119.865662
 20
93.958778
 30
0.0
 11
119.989922
 21
94.004051
 31
0.0
210
0.0
220
0.0
230
1.0
  0
LINE
  5
150
100
AcDbEntity
  8
0
 62
   172
 48
0.003351
100
AcDbLine
 10
119.989922
 20
94.004051
 30
0.0
 11
120.11969
 21
94.037697
 31
0.0
210
0.0
220
0.0
230
1.0
  0
LINE
  5
151
100
AcDbEntity
  8
0
 62
   172
 48
0.003623
100
AcDbLine
 10
120.11969
 20
94.037697
 30
0.0
 11
120.262825
 21
94.060364
 31
0.0
210
0.0
220
0.0
230
1.0
  0
LINE
  5
152
100
AcDbEntity
  8
0
 62
   172
 48
0.003283
100
AcDbLine
 10
120.262825
 20
94.060364
 30
0.0
 11
120.39402
 21
94.06572
 31
0.0
210
0.0
220
0.0
230
1.0
  0
LINE
  5
153
100
AcDbEntity
  8
0
 62
   172
 48
0.002997
100
AcDbLine
 10
120.39402
 20
94.06572
 30
0.0
 11
120.513298
 21
94.053772
 31
0.0
210
0.0
220
0.0
230
1.0
  0
LINE
  5
154
100
AcDbEntity
  8
0
 62
   172
 48
0.002781
100
AcDbLine
 10
120.513298
 20
94.053772
 30
0.0
 11
120.620628
 21
94.024521
 31
0.0
210
0.0
220
0.0
230
1.0
  0
LINE
  5
155
100
AcDbEntity
  8
0
 62
   172
 48
0.002654
100
AcDbLine
 10
120.620628
 20
94.024521
 30
0.0
 11
120.716026
 21
93.977966
 31
0.0
210
0.0
220
0.0
230
1.0
  0
LINE
  5
156
100
AcDbEntity
  8
0
 62
   172
 48
0.002627
100
AcDbLine
 10
120.716026
 20
93.977966
 30
0.0
 11
120.799492
 21
93.914101
 31
0.0
210
0.0
220
0.0
230
1.0
  0
LINE
  5
157
100
AcDbEntity
  8
0
 62
   172
 48
0.002705
100
AcDbLine
 10
120.799492
 20
93.914101
 30
0.0
 11
120.871025
 21
93.832932
 31
0.0
210
0.0
220
0.0
230
1.0
  0
LINE
  5
158
100
AcDbEntity
  8
0
 62
   172
 48
0.002878
100
AcDbLine
 10
120.871025
 20
93.832932
 30
0.0
 11
120.930626
 21
93.734459
 31
0.0
210
0.0
220
0.0
230
1.0
  0
LINE
  5
159
100
AcDbEntity
  8
0
 62
   172
 48
0.00313
100
AcDbLine
 10
120.930626
 20
93.734459
 30
0.0
 11
120.978287
 21
93.618683
 31
0.0
210
0.0
220
0.0
230
1.0
  0
LINE
  5
15A
100
AcDbEntity
  8
0
 62
   172
 48
0.003445
100
AcDbLine
 10
120.978287
 20
93.618683
 30
0.0
 11
121.01403
 21
93.485596
 31
0.0
210
0.0
220
0.0
230
1.0
  0
LINE
  5
15B
100
AcDbEntity
  8
0
 62
   172
 48
0.00084
100
AcDbLine
 10
121.01403
 20
93.485596
 30
0.0
 11
121.01918
 21
93.452377
 31
0.0
210
0.0
220
0.0
230
1.0
  0
LINE
  5
15C
100
AcDbEntity
  8
0
 62
   172
 48
0.001209
100
AcDbLine
 10
121.01918
 20
93.452377
 30
0.0
 11
121.023811
 21
93.404243
 31
0.0
210
0.0
220
0.0
230
1.0
  0
LINE
  5
15D
100
AcDbEntity
  8
0
 62
   172
 48
0.001579
100
AcDbLine
 10
121.023811
 20
93.404243
 30
0.0
 11
121.027931
 21
93.341202
 31
0.0
210
0.0
220
0.0
230
1.0
  0
LINE
  5
15E
100
AcDbEntity
  8
0
 62
   172
 48
0.001951
100
AcDbLine
 10
121.027931
 20
93.341202
 30
0.0
 11
121.031517
 21
93.26326
 31
0.0
210
0.0
220
0.0
230
1.0
  0
LINE
  5
15F
100
AcDbEntity
  8
0
 62
   172
 48
0.002323
100
AcDbLine
 10
121.031517
 20
93.26326
 30
0.0
 11
121.034584
 21
93.170395
 31
0.0
210
0.0
220
0.0
230
1.0
  0
LINE
  5
160
100
AcDbEntity
  8
0
 62
   172
 48
0.002695
100
AcDbLine
 10
121.034584
 20
93.170395
 30
0.0
 11
121.03714
 21
93.062637
 31
0.0
210
0.0
220
0.0
230
1.0
  0
LINE
  5
161
100
AcDbEntity
  8
0
 62
   172
 48
0.003067
100
AcDbLine
 10
121.03714
 20
93.062637
 30
0.0
 11
121.039162
 21
92.939957
 31
0.0
210
0.0
220
0.0
230
1.0
  0
LINE
  5
162
100
AcDbEntity
  8
0
 62
   172
 48
0.00344
100
AcDbLine
 10
121.039162
 20
92.939957
 30
0.0
 11
121.040672
 21
92.802383
 31
0.0
210
0.0
220
0.0
230
1.0
  0
LINE
  5
163
100
AcDbEntity
  8
0
 62
   172
 48
0.003812
100
AcDbLine
 10
121.040672
 20
92.802383
 30
0.0
 11
121.041656
 21
92.649887
 31
0.0
210
0.0
220
0.0
230
1.0
  0
LINE
  5
164
100
AcDbEntity
  8
0
 62
   172
 48
0.004185
100
AcDbLine
 10
121.041656
 20
92.649887
 30
0.0
 11
121.04213
 21
92.482498
 31
0.0
210
0.0
220
0.0
230
1.0
  0
LINE
  5
165
100
AcDbEntity
  8
0
 62
   172
 48
0.094618
100
AcDbLine
 10
121.04213
 20
92.482498
 30
0.0
 11
121.049057
 21
88.697777
 31
0.0
210
0.0
220
0.0
230
1.0
  0
LINE
  5
166
100
AcDbEntity
  8
0
 62
   172
 48
0.043965
100
AcDbLine
 10
121.049057
 20
88.697777
 30
0.0
 11
122.770126
 21
89.05925
 31
0.0
210
0.0
220
0.0
230
1.0
  0
LINE
  5
167
100
AcDbEntity
  8
0
 62
   172
 48
0.094158
100
AcDbLine
 10
122.770126
 20
89.05925
 30
0.0
 11
122.767059
 21
92.825562
 31
0.0
210
0.0
220
0.0
230
1.0
  0
LINE
  5
168
100
AcDbEntity
  8
0
 62
   172
 48
0.004871
100
AcDbLine
 10
122.767059
 20
92.825562
 30
0.0
 11
122.766319
 21
93.020386
 31
0.0
210
0.0
220
0.0
230
1.0
  0
LINE
  5
169
100
AcDbEntity
  8
0
 62
   172
 48
0.004523
100
AcDbLine
 10
122.766319
 20
93.020386
 30
0.0
 11
122.764259
 21
93.201286
 31
0.0
210
0.0
220
0.0
230
1.0
  0
LINE
  5
16A
100
AcDbEntity
  8
0
 62
   172
 48
0.004175
100
AcDbLine
 10
122.764259
 20
93.201286
 30
0.0
 11
122.760895
 21
93.368271
 31
0.0
210
0.0
220
0.0
230
1.0
  0
LINE
  5
16B
100
AcDbEntity
  8
0
 62
   172
 48
0.003828
100
AcDbLine
 10
122.760895
 20
93.368271
 30
0.0
 11
122.756233
 21
93.521332
 31
0.0
210
0.0
220
0.0
230
1.0
  0
LINE
  5
16C
100
AcDbEntity
  8
0
 62
   172
 48
0.003482
100
AcDbLine
 10
122.756233
 20
93.521332
 30
0.0
 11
122.750275
 21
93.660477
 31
0.0
210
0.0
220
0.0
230
1.0
  0
LINE
  5
16D
100
AcDbEntity
  8
0
 62
   172
 48
0.003136
100
AcDbLine
 10
122.750275
 20
93.660477
 30
0.0
 11
122.742996
 21
93.78569
 31
0.0
210
0.0
220
0.0
230
1.0
  0
LINE
  5
16E
100
AcDbEntity
  8
0
 62
   172
 48
0.002791
100
AcDbLine
 10
122.742996
 20
93.78569
 30
0.0
 11
122.734413
 21
93.897003
 31
0.0
210
0.0
220
0.0
230
1.0
  0
LINE
  5
16F
100
AcDbEntity
  8
0
 62
   172
 48
0.002447
100
AcDbLine
 10
122.734413
 20
93.897003
 30
0.0
 11
122.724533
 21
93.994385
 31
0.0
210
0.0
220
0.0
230
1.0
  0
LINE
  5
170
100
AcDbEntity
  8
0
 62
   172
 48
0.002105
100
AcDbLine
 10
122.724533
 20
93.994385
 30
0.0
 11
122.713348
 21
94.07785
 31
0.0
210
0.0
220
0.0
230
1.0
  0
LINE
  5
171
100
AcDbEntity
  8
0
 62
   172
 48
0.001766
100
AcDbLine
 10
122.713348
 20
94.07785
 30
0.0
 11
122.700851
 21
94.147385
 31
0.0
210
0.0
220
0.0
230
1.0
  0
LINE
  5
172
100
AcDbEntity
  8
0
 62
   172
 48
0.003823
100
AcDbLine
 10
122.700851
 20
94.147385
 30
0.0
 11
122.664787
 21
94.295975
 31
0.0
210
0.0
220
0.0
230
1.0
  0
LINE
  5
173
100
AcDbEntity
  8
0
 62
   172
 48
0.003673
100
AcDbLine
 10
122.664787
 20
94.295975
 30
0.0
 11
122.620789
 21
94.436157
 31
0.0
210
0.0
220
0.0
230
1.0
  0
LINE
  5
174
100
AcDbEntity
  8
0
 62
   172
 48
0.003541
100
AcDbLine
 10
122.620789
 20
94.436157
 30
0.0
 11
122.56884
 21
94.567947
 31
0.0
210
0.0
220
0.0
230
1.0
  0
LINE
  5
175
100
AcDbEntity
  8
0
 62
   172
 48
0.003429
100
AcDbLine
 10
122.56884
 20
94.567947
 30
0.0
 11
122.508957
 21
94.691345
 31
0.0
210
0.0
220
0.0
230
1.0
  0
LINE
  5
176
100
AcDbEntity
  8
0
 62
   172
 48
0.003338
100
AcDbLine
 10
122.508957
 20
94.691345
 30
0.0
 11
122.441132
 21
94.806351
 31
0.0
210
0.0
220
0.0
230
1.0
  0
LINE
  5
177
100
AcDbEntity
  8
0
 62
   172
 48
0.00327
100
AcDbLine
 10
122.441132
 20
94.806351
 30
0.0
 11
122.365356
 21
94.912964
 31
0.0
210
0.0
220
0.0
230
1.0
  0
LINE
  5
178
100
AcDbEntity
  8
0
 62
   172
 48
0.003226
100
AcDbLine
 10
122.365356
 20
94.912964
 30
0.0
 11
122.281639
 21
95.011169
 31
0.0
210
0.0
220
0.0
230
1.0
  0
LINE
  5
179
100
AcDbEntity
  8
0
 62
   172
 48
0.003208
100
AcDbLine
 10
122.281639
 20
95.011169
 30
0.0
 11
122.189987
 21
95.10099
 31
0.0
210
0.0
220
0.0
230
1.0
  0
LINE
  5
17A
100
AcDbEntity
  8
0
 62
   172
 48
0.003216
100
AcDbLine
 10
122.189987
 20
95.10099
 30
0.0
 11
122.090393
 21
95.182411
 31
0.0
210
0.0
220
0.0
230
1.0
  0
LINE
  5
17B
100
AcDbEntity
  8
0
 62
   172
 48
0.00325
100
AcDbLine
 10
122.090393
 20
95.182411
 30
0.0
 11
121.982841
 21
95.25544
 31
0.0
210
0.0
220
0.0
230
1.0
  0
LINE
  5
17C
100
AcDbEntity
  8
0
 62
   172
 48
0.003258
100
AcDbLine
 10
121.982841
 20
95.25544
 30
0.0
 11
121.869179
 21
95.319214
 31
0.0
210
0.0
220
0.0
230
1.0
  0
LINE
  5
17D
100
AcDbEntity
  8
0
 62
   172
 48
0.00324
100
AcDbLine
 10
121.869179
 20
95.319214
 30
0.0
 11
121.75119
 21
95.372841
 31
0.0
210
0.0
220
0.0
230
1.0
  0
LINE
  5
17E
100
AcDbEntity
  8
0
 62
   172
 48
0.003245
100
AcDbLine
 10
121.75119
 20
95.372841
 30
0.0
 11
121.628906
 21
95.416351
 31
0.0
210
0.0
220
0.0
230
1.0
  0
LINE
  5
17F
100
AcDbEntity
  8
0
 62
   172
 48
0.003273
100
AcDbLine
 10
121.628906
 20
95.416351
 30
0.0
 11
121.502304
 21
95.449722
 31
0.0
210
0.0
220
0.0
230
1.0
  0
LINE
  5
180
100
AcDbEntity
  8
0
 62
   172
 48
0.003324
100
AcDbLine
 10
121.502304
 20
95.449722
 30
0.0
 11
121.371399
 21
95.472961
 31
0.0
210
0.0
220
0.0
230
1.0
  0
LINE
  5
181
100
AcDbEntity
  8
0
 62
   172
 48
0.003396
100
AcDbLine
 10
121.371399
 20
95.472961
 30
0.0
 11
121.236176
 21
95.486069
 31
0.0
210
0.0
220
0.0
230
1.0
  0
LINE
  5
182
100
AcDbEntity
  8
0
 62
   172
 48
0.003489
100
AcDbLine
 10
121.236176
 20
95.486069
 30
0.0
 11
121.096642
 21
95.489059
 31
0.0
210
0.0
220
0.0
230
1.0
  0
LINE
  5
183
100
AcDbEntity
  8
0
 62
   172
 48
0.003601
100
AcDbLine
 10
121.096642
 20
95.489059
 30
0.0
 11
120.952797
 21
95.481903
 31
0.0
210
0.0
220
0.0
230
1.0
  0
LINE
  5
184
100
AcDbEntity
  8
0
 62
   172
 48
0.003729
100
AcDbLine
 10
120.952797
 20
95.481903
 30
0.0
 11
120.804642
 21
95.46463
 31
0.0
210
0.0
220
0.0
230
1.0
  0
LINE
  5
185
100
AcDbEntity
  8
0
 62
   172
 48
0.003873
100
AcDbLine
 10
120.804642
 20
95.46463
 30
0.0
 11
120.652176
 21
95.437218
 31
0.0
210
0.0
220
0.0
230
1.0
  0
LINE
  5
186
100
AcDbEntity
  8
0
 62
   172
 48
0.005747
100
AcDbLine
 10
120.652176
 20
95.437218
 30
0.0
 11
120.429497
 21
95.380165
 31
0.0
210
0.0
220
0.0
230
1.0
  0
LINE
  5
187
100
AcDbEntity
  8
0
 62
   172
 48
0.0058
100
AcDbLine
 10
120.429497
 20
95.380165
 30
0.0
 11
120.210579
 21
95.303345
 31
0.0
210
0.0
220
0.0
230
1.0
  0
LINE
  5
188
100
AcDbEntity
  8
0
 62
   172
 48
0.005896
100
AcDbLine
 10
120.210579
 20
95.303345
 30
0.0
 11
119.99543
 21
95.206741
 31
0.0
210
0.0
220
0.0
230
1.0
  0
LINE
  5
189
100
AcDbEntity
  8
0
 62
   172
 48
0.006032
100
AcDbLine
 10
119.99543
 20
95.206741
 30
0.0
 11
119.784058
 21
95.09037
 31
0.0
210
0.0
220
0.0
230
1.0
  0
LINE
  5
18A
100
AcDbEntity
  8
0
 62
   172
 48
0.006207
100
AcDbLine
 10
119.784058
 20
95.09037
 30
0.0
 11
119.576439
 21
94.954224
 31
0.0
210
0.0
220
0.0
230
1.0
  0
LINE
  5
18B
100
AcDbEntity
  8
0
 62
   172
 48
0.006416
100
AcDbLine
 10
119.576439
 20
94.954224
 30
0.0
 11
119.372604
 21
94.798309
 31
0.0
210
0.0
220
0.0
230
1.0
  0
LINE
  5
18C
100
AcDbEntity
  8
0
 62
   172
 48
0.006656
100
AcDbLine
 10
119.372604
 20
94.798309
 30
0.0
 11
119.172539
 21
94.62262
 31
0.0
210
0.0
220
0.0
230
1.0
  0
LINE
  5
18D
100
AcDbEntity
  8
0
 62
   172
 48
0.006926
100
AcDbLine
 10
119.172539
 20
94.62262
 30
0.0
 11
118.976234
 21
94.427155
 31
0.0
210
0.0
220
0.0
230
1.0
  0
LINE
  5
18E
100
AcDbEntity
  8
0
 62
   172
 48
0.00722
100
AcDbLine
 10
118.976234
 20
94.427155
 30
0.0
 11
118.783699
 21
94.211914
 31
0.0
210
0.0
220
0.0
230
1.0
  0
LINE
  5
18F
100
AcDbEntity
  8
0
 62
   172
 48
0.007536
100
AcDbLine
 10
118.783699
 20
94.211914
 30
0.0
 11
118.594933
 21
93.976906
 31
0.0
210
0.0
220
0.0
230
1.0
  0
LINE
  5
190
100
AcDbEntity
  8
0
 62
   172
 48
0.021626
100
AcDbLine
 10
118.594933
 20
93.976906
 30
0.0
 11
118.595825
 21
94.841965
 31
0.0
210
0.0
220
0.0
230
1.0
  0
LINE
  5
191
100
AcDbEntity
  8
0
 62
   172
 48
0.04185
100
AcDbLine
 10
118.595825
 20
94.841965
 30
0.0
 11
116.957588
 21
94.497879
 31
0.0
210
0.0
220
0.0
230
1.0
  0
LINE
  5
192
100
AcDbEntity
  8
0
 62
   172
 48
0.006264
100
AcDbLine
 10
128.284744
 20
92.725601
 30
0.0
 11
128.240555
 21
92.478958
 31
0.0
210
0.0
220
0.0
230
1.0
  0
LINE
  5
193
100
AcDbEntity
  8
0
 62
   172
 48
0.005822
100
AcDbLine
 10
128.240555
 20
92.478958
 30
0.0
 11
128.18045
 21
92.253967
 31
0.0
210
0.0
220
0.0
230
1.0
  0
LINE
  5
194
100
AcDbEntity
  8
0
 62
   172
 48
0.005427
100
AcDbLine
 10
128.18045
 20
92.253967
 30
0.0
 11
128.104492
 21
92.050629
 31
0.0
210
0.0
220
0.0
230
1.0
  0
LINE
  5
195
100
AcDbEntity
  8
0
 62
   172
 48
0.00509
100
AcDbLine
 10
128.104492
 20
92.050629
 30
0.0
 11
128.012634
 21
91.868927
 31
0.0
210
0.0
220
0.0
230
1.0
  0
LINE
  5
196
100
AcDbEntity
  8
0
 62
   172
 48
0.004823
100
AcDbLine
 10
128.012634
 20
91.868927
 30
0.0
 11
127.9049
 21
91.708878
 31
0.0
210
0.0
220
0.0
230
1.0
  0
LINE
  5
197
100
AcDbEntity
  8
0
 62
   172
 48
0.00464
100
AcDbLine
 10
127.9049
 20
91.708878
 30
0.0
 11
127.781258
 21
91.57048
 31
0.0
210
0.0
220
0.0
230
1.0
  0
LINE
  5
198
100
AcDbEntity
  8
0
 62
   172
 48
0.004548
100
AcDbLine
 10
127.781258
 20
91.57048
 30
0.0
 11
127.641754
 21
91.453735
 31
0.0
210
0.0
220
0.0
230
1.0
  0
LINE
  5
199
100
AcDbEntity
  8
0
 62
   172
 48
0.004555
100
AcDbLine
 10
127.641754
 20
91.453735
 30
0.0
 11
127.486359
 21
91.358635
 31
0.0
210
0.0
220
0.0
230
1.0
  0
LINE
  5
19A
100
AcDbEntity
  8
0
 62
   172
 48
0.00466
100
AcDbLine
 10
127.486359
 20
91.358635
 30
0.0
 11
127.315056
 21
91.285179
 31
0.0
210
0.0
220
0.0
230
1.0
  0
LINE
  5
19B
100
AcDbEntity
  8
0
 62
   172
 48
0.004855
100
AcDbLine
 10
127.315056
 20
91.285179
 30
0.0
 11
127.127892
 21
91.233376
 31
0.0
210
0.0
220
0.0
230
1.0
  0
LINE
  5
19C
100
AcDbEntity
  8
0
 62
   172
 48
0.0047
100
AcDbLine
 10
127.127892
 20
91.233376
 30
0.0
 11
126.941803
 21
91.206589
 31
0.0
210
0.0
220
0.0
230
1.0
  0
LINE
  5
19D
100
AcDbEntity
  8
0
 62
   172
 48
0.004293
100
AcDbLine
 10
126.941803
 20
91.206589
 30
0.0
 11
126.770103
 21
91.207428
 31
0.0
210
0.0
220
0.0
230
1.0
  0
LINE
  5
19E
100
AcDbEntity
  8
0
 62
   172
 48
0.003997
100
AcDbLine
 10
126.770103
 20
91.207428
 30
0.0
 11
126.612778
 21
91.235886
 31
0.0
210
0.0
220
0.0
230
1.0
  0
LINE
  5
19F
100
AcDbEntity
  8
0
 62
   172
 48
0.003839
100
AcDbLine
 10
126.612778
 20
91.235886
 30
0.0
 11
126.469826
 21
91.291962
 31
0.0
210
0.0
220
0.0
230
1.0
  0
LINE
  5
1A0
100
AcDbEntity
  8
0
 62
   172
 48
0.003836
100
AcDbLine
 10
126.469826
 20
91.291962
 30
0.0
 11
126.341248
 21
91.375664
 31
0.0
210
0.0
220
0.0
230
1.0
  0
LINE
  5
1A1
100
AcDbEntity
  8
0
 62
   172
 48
0.003987
100
AcDbLine
 10
126.341248
 20
91.375664
 30
0.0
 11
126.227058
 21
91.486984
 31
0.0
210
0.0
220
0.0
230
1.0
  0
LINE
  5
1A2
100
AcDbEntity
  8
0
 62
   172
 48
0.004277
100
AcDbLine
 10
126.227058
 20
91.486984
 30
0.0
 11
126.127251
 21
91.625923
 31
0.0
210
0.0
220
0.0
230
1.0
  0
LINE
  5
1A3
100
AcDbEntity
  8
0
 62
   172
 48
0.00468
100
AcDbLine
 10
126.127251
 20
91.625923
 30
0.0
 11
126.041817
 21
91.79248
 31
0.0
210
0.0
220
0.0
230
1.0
  0
LINE
  5
1A4
100
AcDbEntity
  8
0
 62
   172
 48
0.005169
100
AcDbLine
 10
126.041817
 20
91.79248
 30
0.0
 11
125.970764
 21
91.986664
 31
0.0
210
0.0
220
0.0
230
1.0
  0
LINE
  5
1A5
100
AcDbEntity
  8
0
 62
   172
 48
0.005723
100
AcDbLine
 10
125.970764
 20
91.986664
 30
0.0
 11
125.914093
 21
92.208466
 31
0.0
210
0.0
220
0.0
230
1.0
  0
LINE
  5
1A6
100
AcDbEntity
  8
0
 62
   172
 48
0.005109
100
AcDbLine
 10
125.914093
 20
92.208466
 30
0.0
 11
125.876648
 21
92.409363
 31
0.0
210
0.0
220
0.0
230
1.0
  0
LINE
  5
1A7
100
AcDbEntity
  8
0
 62
   172
 48
0.005085
100
AcDbLine
 10
125.876648
 20
92.409363
 30
0.0
 11
125.84861
 21
92.610809
 31
0.0
210
0.0
220
0.0
230
1.0
  0
LINE
  5
1A8
100
AcDbEntity
  8
0
 62
   172
 48
0.005071
100
AcDbLine
 10
125.84861
 20
92.610809
 30
0.0
 11
125.829971
 21
92.812775
 31
0.0
210
0.0
220
0.0
230
1.0
  0
LINE
  5
1A9
100
AcDbEntity
  8
0
 62
   172
 48
0.005068
100
AcDbLine
 10
125.829971
 20
92.812775
 30
0.0
 11
125.82074
 21
93.015282
 31
0.0
210
0.0
220
0.0
230
1.0
  0
LINE
  5
1AA
100
AcDbEntity
  8
0
 62
   172
 48
0.005076
100
AcDbLine
 10
125.82074
 20
93.015282
 30
0.0
 11
125.820908
 21
93.218323
 31
0.0
210
0.0
220
0.0
230
1.0
  0
LINE
  5
1AB
100
AcDbEntity
  8
0
 62
   172
 48
0.005095
100
AcDbLine
 10
125.820908
 20
93.218323
 30
0.0
 11
125.830467
 21
93.42189
 31
0.0
210
0.0
220
0.0
230
1.0
  0
LINE
  5
1AC
100
AcDbEntity
  8
0
 62
   172
 48
0.005125
100
AcDbLine
 10
125.830467
 20
93.42189
 30
0.0
 11
125.849434
 21
93.625992
 31
0.0
210
0.0
220
0.0
230
1.0
  0
LINE
  5
1AD
100
AcDbEntity
  8
0
 62
   172
 48
0.005165
100
AcDbLine
 10
125.849434
 20
93.625992
 30
0.0
 11
125.877815
 21
93.830627
 31
0.0
210
0.0
220
0.0
230
1.0
  0
LINE
  5
1AE
100
AcDbEntity
  8
0
 62
   172
 48
0.005215
100
AcDbLine
 10
125.877815
 20
93.830627
 30
0.0
 11
125.915588
 21
94.035797
 31
0.0
210
0.0
220
0.0
230
1.0
  0
LINE
  5
1AF
100
AcDbEntity
  8
0
 62
   172
 48
0.005276
100
AcDbLine
 10
125.915588
 20
94.035797
 30
0.0
 11
125.962761
 21
94.241501
 31
0.0
210
0.0
220
0.0
230
1.0
  0
LINE
  5
1B0
100
AcDbEntity
  8
0
 62
   172
 48
0.005152
100
AcDbLine
 10
125.962761
 20
94.241501
 30
0.0
 11
126.02124
 21
94.43911
 31
0.0
210
0.0
220
0.0
230
1.0
  0
LINE
  5
1B1
100
AcDbEntity
  8
0
 62
   172
 48
0.004864
100
AcDbLine
 10
126.02124
 20
94.43911
 30
0.0
 11
126.092941
 21
94.61998
 31
0.0
210
0.0
220
0.0
230
1.0
  0
LINE
  5
1B2
100
AcDbEntity
  8
0
 62
   172
 48
0.00462
100
AcDbLine
 10
126.092941
 20
94.61998
 30
0.0
 11
126.177872
 21
94.784119
 31
0.0
210
0.0
220
0.0
230
1.0
  0
LINE
  5
1B3
100
AcDbEntity
  8
0
 62
   172
 48
0.004427
100
AcDbLine
 10
126.177872
 20
94.784119
 30
0.0
 11
126.276009
 21
94.931534
 31
0.0
210
0.0
220
0.0
230
1.0
  0
LINE
  5
1B4
100
AcDbEntity
  8
0
 62
   172
 48
0.004292
100
AcDbLine
 10
126.276009
 20
94.931534
 30
0.0
 11
126.387375
 21
95.062218
 31
0.0
210
0.0
220
0.0
230
1.0
  0
LINE
  5
1B5
100
AcDbEntity
  8
0
 62
   172
 48
0.004221
100
AcDbLine
 10
126.387375
 20
95.062218
 30
0.0
 11
126.511963
 21
95.176163
 31
0.0
210
0.0
220
0.0
230
1.0
  0
LINE
  5
1B6
100
AcDbEntity
  8
0
 62
   172
 48
0.004216
100
AcDbLine
 10
126.511963
 20
95.176163
 30
0.0
 11
126.649757
 21
95.273384
 31
0.0
210
0.0
220
0.0
230
1.0
  0
LINE
  5
1B7
100
AcDbEntity
  8
0
 62
   172
 48
0.004279
100
AcDbLine
 10
126.649757
 20
95.273384
 30
0.0
 11
126.800797
 21
95.353874
 31
0.0
210
0.0
220
0.0
230
1.0
  0
LINE
  5
1B8
100
AcDbEntity
  8
0
 62
   172
 48
0.004404
100
AcDbLine
 10
126.800797
 20
95.353874
 30
0.0
 11
126.965019
 21
95.417633
 31
0.0
210
0.0
220
0.0
230
1.0
  0
LINE
  5
1B9
100
AcDbEntity
  8
0
 62
   172
 48
0.00459
100
AcDbLine
 10
126.965019
 20
95.417633
 30
0.0
 11
127.142494
 21
95.464661
 31
0.0
210
0.0
220
0.0
230
1.0
  0
LINE
  5
1BA
100
AcDbEntity
  8
0
 62
   172
 48
0.004459
100
AcDbLine
 10
127.142494
 20
95.464661
 30
0.0
 11
127.318901
 21
95.490852
 31
0.0
210
0.0
220
0.0
230
1.0
  0
LINE
  5
1BB
100
AcDbEntity
  8
0
 62
   172
 48
0.004119
100
AcDbLine
 10
127.318901
 20
95.490852
 30
0.0
 11
127.483658
 21
95.492874
 31
0.0
210
0.0
220
0.0
230
1.0
  0
LINE
  5
1BC
100
AcDbEntity
  8
0
 62
   172
 48
0.003868
100
AcDbLine
 10
127.483658
 20
95.492874
 30
0.0
 11
127.636772
 21
95.470741
 31
0.0
210
0.0
220
0.0
230
1.0
  0
LINE
  5
1BD
100
AcDbEntity
  8
0
 62
   172
 48
0.003721
100
AcDbLine
 10
127.636772
 20
95.470741
 30
0.0
 11
127.778244
 21
95.424446
 31
0.0
210
0.0
220
0.0
230
1.0
  0
LINE
  5
1BE
100
AcDbEntity
  8
0
 62
   172
 48
0.003693
100
AcDbLine
 10
127.778244
 20
95.424446
 30
0.0
 11
127.908081
 21
95.353989
 31
0.0
210
0.0
220
0.0
230
1.0
  0
LINE
  5
1BF
100
AcDbEntity
  8
0
 62
   172
 48
0.003785
100
AcDbLine
 10
127.908081
 20
95.353989
 30
0.0
 11
128.02626
 21
95.259354
 31
0.0
210
0.0
220
0.0
230
1.0
  0
LINE
  5
1C0
100
AcDbEntity
  8
0
 62
   172
 48
0.003989
100
AcDbLine
 10
128.02626
 20
95.259354
 30
0.0
 11
128.132782
 21
95.140564
 31
0.0
210
0.0
220
0.0
230
1.0
  0
LINE
  5
1C1
100
AcDbEntity
  8
0
 62
   172
 48
0.004289
100
AcDbLine
 10
128.132782
 20
95.140564
 30
0.0
 11
128.227661
 21
94.99762
 31
0.0
210
0.0
220
0.0
230
1.0
  0
LINE
  5
1C2
100
AcDbEntity
  8
0
 62
   172
 48
0.004668
100
AcDbLine
 10
128.227661
 20
94.99762
 30
0.0
 11
128.310913
 21
94.830498
 31
0.0
210
0.0
220
0.0
230
1.0
  0
LINE
  5
1C3
100
AcDbEntity
  8
0
 62
   172
 48
0.005106
100
AcDbLine
 10
128.310913
 20
94.830498
 30
0.0
 11
128.382523
 21
94.639221
 31
0.0
210
0.0
220
0.0
230
1.0
  0
LINE
  5
1C4
100
AcDbEntity
  8
0
 62
   172
 48
0.042321
100
AcDbLine
 10
128.382523
 20
94.639221
 30
0.0
 11
129.993225
 21
95.160103
 31
0.0
210
0.0
220
0.0
230
1.0
  0
LINE
  5
1C5
100
AcDbEntity
  8
0
 62
   172
 48
0.010562
100
AcDbLine
 10
129.993225
 20
95.160103
 30
0.0
 11
129.837341
 21
95.55278
 31
0.0
210
0.0
220
0.0
230
1.0
  0
LINE
  5
1C6
100
AcDbEntity
  8
0
 62
   172
 48
0.009739
100
AcDbLine
 10
129.837341
 20
95.55278
 30
0.0
 11
129.649231
 21
95.893906
 31
0.0
210
0.0
220
0.0
230
1.0
  0
LINE
  5
1C7
100
AcDbEntity
  8
0
 62
   172
 48
0.009097
100
AcDbLine
 10
129.649231
 20
95.893906
 30
0.0
 11
129.428894
 21
96.183479
 31
0.0
210
0.0
220
0.0
230
1.0
  0
LINE
  5
1C8
100
AcDbEntity
  8
0
 62
   172
 48
0.008677
100
AcDbLine
 10
129.428894
 20
96.183479
 30
0.0
 11
129.176315
 21
96.421509
 31
0.0
210
0.0
220
0.0
230
1.0
  0
LINE
  5
1C9
100
AcDbEntity
  8
0
 62
   172
 48
0.00851
100
AcDbLine
 10
129.176315
 20
96.421509
 30
0.0
 11
128.891541
 21
96.607986
 31
0.0
210
0.0
220
0.0
230
1.0
  0
LINE
  5
1CA
100
AcDbEntity
  8
0
 62
   172
 48
0.008613
100
AcDbLine
 10
128.891541
 20
96.607986
 30
0.0
 11
128.574524
 21
96.74292
 31
0.0
210
0.0
220
0.0
230
1.0
  0
LINE
  5
1CB
100
AcDbEntity
  8
0
 62
   172
 48
0.008976
100
AcDbLine
 10
128.574524
 20
96.74292
 30
0.0
 11
128.225296
 21
96.826294
 31
0.0
210
0.0
220
0.0
230
1.0
  0
LINE
  5
1CC
100
AcDbEntity
  8
0
 62
   172
 48
0.00957
100
AcDbLine
 10
128.225296
 20
96.826294
 30
0.0
 11
127.843826
 21
96.858124
 31
0.0
210
0.0
220
0.0
230
1.0
  0
LINE
  5
1CD
100
AcDbEntity
  8
0
 62
   172
 48
0.010354
100
AcDbLine
 10
127.843826
 20
96.858124
 30
0.0
 11
127.430138
 21
96.838409
 31
0.0
210
0.0
220
0.0
230
1.0
  0
LINE
  5
1CE
100
AcDbEntity
  8
0
 62
   172
 48
0.011289
100
AcDbLine
 10
127.430138
 20
96.838409
 30
0.0
 11
126.98423
 21
96.767151
 31
0.0
210
0.0
220
0.0
230
1.0
  0
LINE
  5
1CF
100
AcDbEntity
  8
0
 62
   172
 48
0.007387
100
AcDbLine
 10
126.98423
 20
96.767151
 30
0.0
 11
126.697418
 21
96.696152
 31
0.0
210
0.0
220
0.0
230
1.0
  0
LINE
  5
1D0
100
AcDbEntity
  8
0
 62
   172
 48
0.007238
100
AcDbLine
 10
126.697418
 20
96.696152
 30
0.0
 11
126.422272
 21
96.606064
 31
0.0
210
0.0
220
0.0
230
1.0
  0
LINE
  5
1D1
100
AcDbEntity
  8
0
 62
   172
 48
0.007129
100
AcDbLine
 10
126.422272
 20
96.606064
 30
0.0
 11
126.158836
 21
96.496933
 31
0.0
210
0.0
220
0.0
230
1.0
  0
LINE
  5
1D2
100
AcDbEntity
  8
0
 62
   172
 48
0.007063
100
AcDbLine
 10
126.158836
 20
96.496933
 30
0.0
 11
125.907089
 21
96.368713
 31
0.0
210
0.0
220
0.0
230
1.0
  0
LINE
  5
1D3
100
AcDbEntity
  8
0
 62
   172
 48
0.007041
100
AcDbLine
 10
125.907089
 20
96.368713
 30
0.0
 11
125.66703
 21
96.221428
 31
0.0
210
0.0
220
0.0
230
1.0
  0
LINE
  5
1D4
100
AcDbEntity
  8
0
 62
   172
 48
0.007063
100
AcDbLine
 10
125.66703
 20
96.221428
 30
0.0
 11
125.438675
 21
96.055077
 31
0.0
210
0.0
220
0.0
230
1.0
  0
LINE
  5
1D5
100
AcDbEntity
  8
0
 62
   172
 48
0.00713
100
AcDbLine
 10
125.438675
 20
96.055077
 30
0.0
 11
125.221992
 21
95.869652
 31
0.0
210
0.0
220
0.0
230
1.0
  0
LINE
  5
1D6
100
AcDbEntity
  8
0
 62
   172
 48
0.007238
100
AcDbLine
 10
125.221992
 20
95.869652
 30
0.0
 11
125.017021
 21
95.665161
 31
0.0
210
0.0
220
0.0
230
1.0
  0
LINE
  5
1D7
100
AcDbEntity
  8
0
 62
   172
 48
0.007388
100
AcDbLine
 10
125.017021
 20
95.665161
 30
0.0
 11
124.823738
 21
95.441597
 31
0.0
210
0.0
220
0.0
230
1.0
  0
LINE
  5
1D8
100
AcDbEntity
  8
0
 62
   172
 48
0.007577
100
AcDbLine
 10
124.823738
 20
95.441597
 30
0.0
 11
124.642143
 21
95.198967
 31
0.0
210
0.0
220
0.0
230
1.0
  0
LINE
  5
1D9
100
AcDbEntity
  8
0
 62
   172
 48
0.00764
100
AcDbLine
 10
124.642143
 20
95.198967
 30
0.0
 11
124.479172
 21
94.940445
 31
0.0
210
0.0
220
0.0
230
1.0
  0
LINE
  5
1DA
100
AcDbEntity
  8
0
 62
   172
 48
0.007601
100
AcDbLine
 10
124.479172
 20
94.940445
 30
0.0
 11
124.341736
 21
94.669228
 31
0.0
210
0.0
220
0.0
230
1.0
  0
LINE
  5
1DB
100
AcDbEntity
  8
0
 62
   172
 48
0.007629
100
AcDbLine
 10
124.341736
 20
94.669228
 30
0.0
 11
124.229836
 21
94.385307
 31
0.0
210
0.0
220
0.0
230
1.0
  0
LINE
  5
1DC
100
AcDbEntity
  8
0
 62
   172
 48
0.007724
100
AcDbLine
 10
124.229836
 20
94.385307
 30
0.0
 11
124.143471
 21
94.088684
 31
0.0
210
0.0
220
0.0
230
1.0
  0
LINE
  5
1DD
100
AcDbEntity
  8
0
 62
   172
 48
0.007881
100
AcDbLine
 10
124.143471
 20
94.088684
 30
0.0
 11
124.082657
 21
93.779358
 31
0.0
210
0.0
220
0.0
230
1.0
  0
LINE
  5
1DE
100
AcDbEntity
  8
0
 62
   172
 48
0.008099
100
AcDbLine
 10
124.082657
 20
93.779358
 30
0.0
 11
124.047371
 21
93.457329
 31
0.0
210
0.0
220
0.0
230
1.0
  0
LINE
  5
1DF
100
AcDbEntity
  8
0
 62
   172
 48
0.008372
100
AcDbLine
 10
124.047371
 20
93.457329
 30
0.0
 11
124.037628
 21
93.122597
 31
0.0
210
0.0
220
0.0
230
1.0
  0
LINE
  5
1E0
100
AcDbEntity
  8
0
 62
   172
 48
0.008695
100
AcDbLine
 10
124.037628
 20
93.122597
 30
0.0
 11
124.053421
 21
92.775162
 31
0.0
210
0.0
220
0.0
230
1.0
  0
LINE
  5
1E1
100
AcDbEntity
  8
0
 62
   172
 48
0.009062
100
AcDbLine
 10
124.053421
 20
92.775162
 30
0.0
 11
124.094757
 21
92.415031
 31
0.0
210
0.0
220
0.0
230
1.0
  0
LINE
  5
1E2
100
AcDbEntity
  8
0
 62
   172
 48
0.00947
100
AcDbLine
 10
124.094757
 20
92.415031
 30
0.0
 11
124.161621
 21
92.042191
 31
0.0
210
0.0
220
0.0
230
1.0
  0
LINE
  5
1E3
100
AcDbEntity
  8
0
 62
   172
 48
0.00557
100
AcDbLine
 10
124.161621
 20
92.042191
 30
0.0
 11
124.213699
 21
91.825577
 31
0.0
210
0.0
220
0.0
230
1.0
  0
LINE
  5
1E4
100
AcDbEntity
  8
0
 62
   172
 48
0.005438
100
AcDbLine
 10
124.213699
 20
91.825577
 30
0.0
 11
124.277161
 21
91.6175
 31
0.0
210
0.0
220
0.0
230
1.0
  0
LINE
  5
1E5
100
AcDbEntity
  8
0
 62
   172
 48
0.005328
100
AcDbLine
 10
124.277161
 20
91.6175
 30
0.0
 11
124.351982
 21
91.417961
 31
0.0
210
0.0
220
0.0
230
1.0
  0
LINE
  5
1E6
100
AcDbEntity
  8
0
 62
   172
 48
0.005239
100
AcDbLine
 10
124.351982
 20
91.417961
 30
0.0
 11
124.438171
 21
91.226959
 31
0.0
210
0.0
220
0.0
230
1.0
  0
LINE
  5
1E7
100
AcDbEntity
  8
0
 62
   172
 48
0.005173
100
AcDbLine
 10
124.438171
 20
91.226959
 30
0.0
 11
124.535744
 21
91.044495
 31
0.0
210
0.0
220
0.0
230
1.0
  0
LINE
  5
1E8
100
AcDbEntity
  8
0
 62
   172
 48
0.00513
100
AcDbLine
 10
124.535744
 20
91.044495
 30
0.0
 11
124.644676
 21
90.870575
 31
0.0
210
0.0
220
0.0
230
1.0
  0
LINE
  5
1E9
100
AcDbEntity
  8
0
 62
   172
 48
0.005113
100
AcDbLine
 10
124.644676
 20
90.870575
 30
0.0
 11
124.764984
 21
90.705185
 31
0.0
210
0.0
220
0.0
230
1.0
  0
LINE
  5
1EA
100
AcDbEntity
  8
0
 62
   172
 48
0.00512
100
AcDbLine
 10
124.764984
 20
90.705185
 30
0.0
 11
124.896667
 21
90.54834
 31
0.0
210
0.0
220
0.0
230
1.0
  0
LINE
  5
1EB
100
AcDbEntity
  8
0
 62
   172
 48
0.005151
100
AcDbLine
 10
124.896667
 20
90.54834
 30
0.0
 11
125.039719
 21
90.400032
 31
0.0
210
0.0
220
0.0
230
1.0
  0
LINE
  5
1EC
100
AcDbEntity
  8
0
 62
   172
 48
0.005207
100
AcDbLine
 10
125.039719
 20
90.400032
 30
0.0
 11
125.194145
 21
90.260269
 31
0.0
210
0.0
220
0.0
230
1.0
  0
LINE
  5
1ED
100
AcDbEntity
  8
0
 62
   172
 48
0.005207
100
AcDbLine
 10
125.194145
 20
90.260269
 30
0.0
 11
125.360146
 21
90.13446
 31
0.0
210
0.0
220
0.0
230
1.0
  0
LINE
  5
1EE
100
AcDbEntity
  8
0
 62
   172
 48
0.00518
100
AcDbLine
 10
125.360146
 20
90.13446
 30
0.0
 11
125.537933
 21
90.028038
 31
0.0
210
0.0
220
0.0
230
1.0
  0
LINE
  5
1EF
100
AcDbEntity
  8
0
 62
   172
 48
0.005215
100
AcDbLine
 10
125.537933
 20
90.028038
 30
0.0
 11
125.727501
 21
89.94101
 31
0.0
210
0.0
220
0.0
230
1.0
  0
LINE
  5
1F0
100
AcDbEntity
  8
0
 62
   172
 48
0.00531
100
AcDbLine
 10
125.727501
 20
89.94101
 30
0.0
 11
125.928856
 21
89.873367
 31
0.0
210
0.0
220
0.0
230
1.0
  0
LINE
  5
1F1
100
AcDbEntity
  8
0
 62
   172
 48
0.005463
100
AcDbLine
 10
125.928856
 20
89.873367
 30
0.0
 11
126.141991
 21
89.825111
 31
0.0
210
0.0
220
0.0
230
1.0
  0
LINE
  5
1F2
100
AcDbEntity
  8
0
 62
   172
 48
0.005669
100
AcDbLine
 10
126.141991
 20
89.825111
 30
0.0
 11
126.366913
 21
89.796242
 31
0.0
210
0.0
220
0.0
230
1.0
  0
LINE
  5
1F3
100
AcDbEntity
  8
0
 62
   172
 48
0.005922
100
AcDbLine
 10
126.366913
 20
89.796242
 30
0.0
 11
126.603615
 21
89.786758
 31
0.0
210
0.0
220
0.0
230
1.0
  0
LINE
  5
1F4
100
AcDbEntity
  8
0
 62
   172
 48
0.006217
100
AcDbLine
 10
126.603615
 20
89.786758
 30
0.0
 11
126.852112
 21
89.796677
 31
0.0
210
0.0
220
0.0
230
1.0
  0
LINE
  5
1F5
100
AcDbEntity
  8
0
 62
   172
 48
0.006548
100
AcDbLine
 10
126.852112
 20
89.796677
 30
0.0
 11
127.112381
 21
89.825974
 31
0.0
210
0.0
220
0.0
230
1.0
  0
LINE
  5
1F6
100
AcDbEntity
  8
0
 62
   172
 48
0.006909
100
AcDbLine
 10
127.112381
 20
89.825974
 30
0.0
 11
127.384438
 21
89.874649
 31
0.0
210
0.0
220
0.0
230
1.0
  0
LINE
  5
1F7
100
AcDbEntity
  8
0
 62
   172
 48
0.01122
100
AcDbLine
 10
127.384438
 20
89.874649
 30
0.0
 11
127.818283
 21
89.989609
 31
0.0
210
0.0
220
0.0
230
1.0
  0
LINE
  5
1F8
100
AcDbEntity
  8
0
 62
   172
 48
0.010626
100
AcDbLine
 10
127.818283
 20
89.989609
 30
0.0
 11
128.214203
 21
90.144257
 31
0.0
210
0.0
220
0.0
230
1.0
  0
LINE
  5
1F9
100
AcDbEntity
  8
0
 62
   172
 48
0.010184
100
AcDbLine
 10
128.214203
 20
90.144257
 30
0.0
 11
128.572189
 21
90.338608
 31
0.0
210
0.0
220
0.0
230
1.0
  0
LINE
  5
1FA
100
AcDbEntity
  8
0
 62
   172
 48
0.009912
100
AcDbLine
 10
128.572189
 20
90.338608
 30
0.0
 11
128.892227
 21
90.572639
 31
0.0
210
0.0
220
0.0
230
1.0
  0
LINE
  5
1FB
100
AcDbEntity
  8
0
 62
   172
 48
0.009827
100
AcDbLine
 10
128.892227
 20
90.572639
 30
0.0
 11
129.174332
 21
90.846375
 31
0.0
210
0.0
220
0.0
230
1.0
  0
LINE
  5
1FC
100
AcDbEntity
  8
0
 62
   172
 48
0.009933
100
AcDbLine
 10
129.174332
 20
90.846375
 30
0.0
 11
129.418503
 21
91.159805
 31
0.0
210
0.0
220
0.0
230
1.0
  0
LINE
  5
1FD
100
AcDbEntity
  8
0
 62
   172
 48
0.010224
100
AcDbLine
 10
129.418503
 20
91.159805
 30
0.0
 11
129.624756
 21
91.512939
 31
0.0
210
0.0
220
0.0
230
1.0
  0
LINE
  5
1FE
100
AcDbEntity
  8
0
 62
   172
 48
0.010684
100
AcDbLine
 10
129.624756
 20
91.512939
 30
0.0
 11
129.793045
 21
91.905762
 31
0.0
210
0.0
220
0.0
230
1.0
  0
LINE
  5
1FF
100
AcDbEntity
  8
0
 62
   172
 48
0.011294
100
AcDbLine
 10
129.793045
 20
91.905762
 30
0.0
 11
129.923431
 21
92.338287
 31
0.0
210
0.0
220
0.0
230
1.0
  0
LINE
  5
200
100
AcDbEntity
  8
0
 62
   172
 48
0.012029
100
AcDbLine
 10
129.923431
 20
92.338287
 30
0.0
 11
130.015854
 21
92.810501
 31
0.0
210
0.0
220
0.0
230
1.0
  0
LINE
  5
201
100
AcDbEntity
  8
0
 62
   172
 48
0.04333
100
AcDbLine
 10
130.015854
 20
92.810501
 30
0.0
 11
128.284744
 21
92.725601
 31
0.0
210
0.0
220
0.0
230
1.0
  0
LINE
  5
202
100
AcDbEntity
  8
0
 62
   172
 48
0.002637
100
AcDbLine
 10
136.964813
 20
94.817749
 30
0.0
 11
136.9664
 21
94.92321
 31
0.0
210
0.0
220
0.0
230
1.0
  0
LINE
  5
203
100
AcDbEntity
  8
0
 62
   172
 48
0.002689
100
AcDbLine
 10
136.9664
 20
94.92321
 30
0.0
 11
136.965057
 21
95.030746
 31
0.0
210
0.0
220
0.0
230
1.0
  0
LINE
  5
204
100
AcDbEntity
  8
0
 62
   172
 48
0.002742
100
AcDbLine
 10
136.965057
 20
95.030746
 30
0.0
 11
136.960754
 21
95.140358
 31
0.0
210
0.0
220
0.0
230
1.0
  0
LINE
  5
205
100
AcDbEntity
  8
0
 62
   172
 48
0.002798
100
AcDbLine
 10
136.960754
 20
95.140358
 30
0.0
 11
136.953552
 21
95.252045
 31
0.0
210
0.0
220
0.0
230
1.0
  0
LINE
  5
206
100
AcDbEntity
  8
0
 62
   172
 48
0.002855
100
AcDbLine
 10
136.953552
 20
95.252045
 30
0.0
 11
136.94339
 21
95.365799
 31
0.0
210
0.0
220
0.0
230
1.0
  0
LINE
  5
207
100
AcDbEntity
  8
0
 62
   172
 48
0.002915
100
AcDbLine
 10
136.94339
 20
95.365799
 30
0.0
 11
136.930313
 21
95.481644
 31
0.0
210
0.0
220
0.0
230
1.0
  0
LINE
  5
208
100
AcDbEntity
  8
0
 62
   172
 48
0.002975
100
AcDbLine
 10
136.930313
 20
95.481644
 30
0.0
 11
136.914291
 21
95.599548
 31
0.0
210
0.0
220
0.0
230
1.0
  0
LINE
  5
209
100
AcDbEntity
  8
0
 62
   172
 48
0.003037
100
AcDbLine
 10
136.914291
 20
95.599548
 30
0.0
 11
136.89534
 21
95.719528
 31
0.0
210
0.0
220
0.0
230
1.0
  0
LINE
  5
20A
100
AcDbEntity
  8
0
 62
   172
 48
0.0031
100
AcDbLine
 10
136.89534
 20
95.719528
 30
0.0
 11
136.873444
 21
95.841583
 31
0.0
210
0.0
220
0.0
230
1.0
  0
LINE
  5
20B
100
AcDbEntity
  8
0
 62
   172
 48
0.003165
100
AcDbLine
 10
136.873444
 20
95.841583
 30
0.0
 11
136.848618
 21
95.965714
 31
0.0
210
0.0
220
0.0
230
1.0
  0
LINE
  5
20C
100
AcDbEntity
  8
0
 62
   172
 48
0.005704
100
AcDbLine
 10
136.848618
 20
95.965714
 30
0.0
 11
136.795685
 21
96.187637
 31
0.0
210
0.0
220
0.0
230
1.0
  0
LINE
  5
20D
100
AcDbEntity
  8
0
 62
   172
 48
0.005556
100
AcDbLine
 10
136.795685
 20
96.187637
 30
0.0
 11
136.731934
 21
96.400543
 31
0.0
210
0.0
220
0.0
230
1.0
  0
LINE
  5
20E
100
AcDbEntity
  8
0
 62
   172
 48
0.005428
100
AcDbLine
 10
136.731934
 20
96.400543
 30
0.0
 11
136.657379
 21
96.604469
 31
0.0
210
0.0
220
0.0
230
1.0
  0
LINE
  5
20F
100
AcDbEntity
  8
0
 62
   172
 48
0.00532
100
AcDbLine
 10
136.657379
 20
96.604469
 30
0.0
 11
136.572052
 21
96.799393
 31
0.0
210
0.0
220
0.0
230
1.0
  0
LINE
  5
210
100
AcDbEntity
  8
0
 62
   172
 48
0.005233
100
AcDbLine
 10
136.572052
 20
96.799393
 30
0.0
 11
136.475922
 21
96.985336
 31
0.0
210
0.0
220
0.0
230
1.0
  0
LINE
  5
211
100
AcDbEntity
  8
0
 62
   172
 48
0.005168
100
AcDbLine
 10
136.475922
 20
96.985336
 30
0.0
 11
136.369003
 21
97.162277
 31
0.0
210
0.0
220
0.0
230
1.0
  0
LINE
  5
212
100
AcDbEntity
  8
0
 62
   172
 48
0.005127
100
AcDbLine
 10
136.369003
 20
97.162277
 30
0.0
 11
136.251282
 21
97.330215
 31
0.0
210
0.0
220
0.0
230
1.0
  0
LINE
  5
213
100
AcDbEntity
  8
0
 62
   172
 48
0.00511
100
AcDbLine
 10
136.251282
 20
97.330215
 30
0.0
 11
136.122757
 21
97.489166
 31
0.0
210
0.0
220
0.0
230
1.0
  0
LINE
  5
214
100
AcDbEntity
  8
0
 62
   172
 48
0.005117
100
AcDbLine
 10
136.122757
 20
97.489166
 30
0.0
 11
135.983444
 21
97.63913
 31
0.0
210
0.0
220
0.0
230
1.0
  0
LINE
  5
215
100
AcDbEntity
  8
0
 62
   172
 48
0.005148
100
AcDbLine
 10
135.983444
 20
97.63913
 30
0.0
 11
135.833328
 21
97.78009
 31
0.0
210
0.0
220
0.0
230
1.0
  0
LINE
  5
216
100
AcDbEntity
  8
0
 62
   172
 48
0.005127
100
AcDbLine
 10
135.833328
 20
97.78009
 30
0.0
 11
135.67215
 21
97.906914
 31
0.0
210
0.0
220
0.0
230
1.0
  0
LINE
  5
217
100
AcDbEntity
  8
0
 62
   172
 48
0.005082
100
AcDbLine
 10
135.67215
 20
97.906914
 30
0.0
 11
135.499664
 21
98.01445
 31
0.0
210
0.0
220
0.0
230
1.0
  0
LINE
  5
218
100
AcDbEntity
  8
0
 62
   172
 48
0.005098
100
AcDbLine
 10
135.499664
 20
98.01445
 30
0.0
 11
135.315842
 21
98.102684
 31
0.0
210
0.0
220
0.0
230
1.0
  0
LINE
  5
219
100
AcDbEntity
  8
0
 62
   172
 48
0.005174
100
AcDbLine
 10
135.315842
 20
98.102684
 30
0.0
 11
135.120697
 21
98.171631
 31
0.0
210
0.0
220
0.0
230
1.0
  0
LINE
  5
21A
100
AcDbEntity
  8
0
 62
   172
 48
0.005309
100
AcDbLine
 10
135.120697
 20
98.171631
 30
0.0
 11
134.91423
 21
98.221283
 31
0.0
210
0.0
220
0.0
230
1.0
  0
LINE
  5
21B
100
AcDbEntity
  8
0
 62
   172
 48
0.005497
100
AcDbLine
 10
134.91423
 20
98.221283
 30
0.0
 11
134.696457
 21
98.251648
 31
0.0
210
0.0
220
0.0
230
1.0
  0
LINE
  5
21C
100
AcDbEntity
  8
0
 62
   172
 48
0.005735
100
AcDbLine
 10
134.696457
 20
98.251648
 30
0.0
 11
134.467331
 21
98.262726
 31
0.0
210
0.0
220
0.0
230
1.0
  0
LINE
  5
21D
100
AcDbEntity
  8
0
 62
   172
 48
0.006014
100
AcDbLine
 10
134.467331
 20
98.262726
 30
0.0
 11
134.226898
 21
98.254517
 31
0.0
210
0.0
220
0.0
230
1.0
  0
LINE
  5
21E
100
AcDbEntity
  8
0
 62
   172
 48
0.006332
100
AcDbLine
 10
134.226898
 20
98.254517
 30
0.0
 11
133.975128
 21
98.227005
 31
0.0
210
0.0
220
0.0
230
1.0
  0
LINE
  5
21F
100
AcDbEntity
  8
0
 62
   172
 48
0.00668
100
AcDbLine
 10
133.975128
 20
98.227005
 30
0.0
 11
133.712067
 21
98.180206
 31
0.0
210
0.0
220
0.0
230
1.0
  0
LINE
  5
220
100
AcDbEntity
  8
0
 62
   172
 48
0.009115
100
AcDbLine
 10
133.712067
 20
98.180206
 30
0.0
 11
133.357986
 21
98.093292
 31
0.0
210
0.0
220
0.0
230
1.0
  0
LINE
  5
221
100
AcDbEntity
  8
0
 62
   172
 48
0.008662
100
AcDbLine
 10
133.357986
 20
98.093292
 30
0.0
 11
133.028381
 21
97.98645
 31
0.0
210
0.0
220
0.0
230
1.0
  0
LINE
  5
222
100
AcDbEntity
  8
0
 62
   172
 48
0.008261
100
AcDbLine
 10
133.028381
 20
97.98645
 30
0.0
 11
132.723251
 21
97.859657
 31
0.0
210
0.0
220
0.0
230
1.0
  0
LINE
  5
223
100
AcDbEntity
  8
0
 62
   172
 48
0.007918
100
AcDbLine
 10
132.723251
 20
97.859657
 30
0.0
 11
132.442566
 21
97.712921
 31
0.0
210
0.0
220
0.0
230
1.0
  0
LINE
  5
224
100
AcDbEntity
  8
0
 62
   172
 48
0.007641
100
AcDbLine
 10
132.442566
 20
97.712921
 30
0.0
 11
132.186356
 21
97.546249
 31
0.0
210
0.0
220
0.0
230
1.0
  0
LINE
  5
225
100
AcDbEntity
  8
0
 62
   172
 48
0.007439
100
AcDbLine
 10
132.186356
 20
97.546249
 30
0.0
 11
131.954605
 21
97.359627
 31
0.0
210
0.0
220
0.0
230
1.0
  0
LINE
  5
226
100
AcDbEntity
  8
0
 62
   172
 48
0.007316
100
AcDbLine
 10
131.954605
 20
97.359627
 30
0.0
 11
131.747314
 21
97.153061
 31
0.0
210
0.0
220
0.0
230
1.0
  0
LINE
  5
227
100
AcDbEntity
  8
0
 62
   172
 48
0.007277
100
AcDbLine
 10
131.747314
 20
97.153061
 30
0.0
 11
131.564514
 21
96.926559
 31
0.0
210
0.0
220
0.0
230
1.0
  0
LINE
  5
228
100
AcDbEntity
  8
0
 62
   172
 48
0.007323
100
AcDbLine
 10
131.564514
 20
96.926559
 30
0.0
 11
131.406158
 21
96.680115
 31
0.0
210
0.0
220
0.0
230
1.0
  0
LINE
  5
229
100
AcDbEntity
  8
0
 62
   172
 48
0.007454
100
AcDbLine
 10
131.406158
 20
96.680115
 30
0.0
 11
131.272263
 21
96.413727
 31
0.0
210
0.0
220
0.0
230
1.0
  0
LINE
  5
22A
100
AcDbEntity
  8
0
 62
   172
 48
0.007447
100
AcDbLine
 10
131.272263
 20
96.413727
 30
0.0
 11
131.159454
 21
96.138016
 31
0.0
210
0.0
220
0.0
230
1.0
  0
LINE
  5
22B
100
AcDbEntity
  8
0
 62
   172
 48
0.00726
100
AcDbLine
 10
131.159454
 20
96.138016
 30
0.0
 11
131.064346
 21
95.863625
 31
0.0
210
0.0
220
0.0
230
1.0
  0
LINE
  5
22C
100
AcDbEntity
  8
0
 62
   172
 48
0.007096
100
AcDbLine
 10
131.064346
 20
95.863625
 30
0.0
 11
130.986923
 21
95.590546
 31
0.0
210
0.0
220
0.0
230
1.0
  0
LINE
  5
22D
100
AcDbEntity
  8
0
 62
   172
 48
0.006956
100
AcDbLine
 10
130.986923
 20
95.590546
 30
0.0
 11
130.927216
 21
95.318787
 31
0.0
210
0.0
220
0.0
230
1.0
  0
LINE
  5
22E
100
AcDbEntity
  8
0
 62
   172
 48
0.006842
100
AcDbLine
 10
130.927216
 20
95.318787
 30
0.0
 11
130.885178
 21
95.04834
 31
0.0
210
0.0
220
0.0
230
1.0
  0
LINE
  5
22F
100
AcDbEntity
  8
0
 62
   172
 48
0.006756
100
AcDbLine
 10
130.885178
 20
95.04834
 30
0.0
 11
130.860825
 21
94.779205
 31
0.0
210
0.0
220
0.0
230
1.0
  0
LINE
  5
230
100
AcDbEntity
  8
0
 62
   172
 48
0.006698
100
AcDbLine
 10
130.860825
 20
94.779205
 30
0.0
 11
130.854187
 21
94.511383
 31
0.0
210
0.0
220
0.0
230
1.0
  0
LINE
  5
231
100
AcDbEntity
  8
0
 62
   172
 48
0.006668
100
AcDbLine
 10
130.854187
 20
94.511383
 30
0.0
 11
130.865234
 21
94.244873
 31
0.0
210
0.0
220
0.0
230
1.0
  0
LINE
  5
232
100
AcDbEntity
  8
0
 62
   172
 48
0.006669
100
AcDbLine
 10
130.865234
 20
94.244873
 30
0.0
 11
130.893982
 21
93.979683
 31
0.0
210
0.0
220
0.0
230
1.0
  0
LINE
  5
233
100
AcDbEntity
  8
0
 62
   172
 48
0.006698
100
AcDbLine
 10
130.893982
 20
93.979683
 30
0.0
 11
130.94043
 21
93.715805
 31
0.0
210
0.0
220
0.0
230
1.0
  0
LINE
  5
234
100
AcDbEntity
  8
0
 62
   172
 48
0.006645
100
AcDbLine
 10
130.94043
 20
93.715805
 30
0.0
 11
131.002945
 21
93.457458
 31
0.0
210
0.0
220
0.0
230
1.0
  0
LINE
  5
235
100
AcDbEntity
  8
0
 62
   172
 48
0.006412
100
AcDbLine
 10
131.002945
 20
93.457458
 30
0.0
 11
131.079178
 21
93.21257
 31
0.0
210
0.0
220
0.0
230
1.0
  0
LINE
  5
236
100
AcDbEntity
  8
0
 62
   172
 48
0.006207
100
AcDbLine
 10
131.079178
 20
93.21257
 30
0.0
 11
131.169098
 21
92.981133
 31
0.0
210
0.0
220
0.0
230
1.0
  0
LINE
  5
237
100
AcDbEntity
  8
0
 62
   172
 48
0.006034
100
AcDbLine
 10
131.169098
 20
92.981133
 30
0.0
 11
131.272736
 21
92.763138
 31
0.0
210
0.0
220
0.0
230
1.0
  0
LINE
  5
238
100
AcDbEntity
  8
0
 62
   172
 48
0.005895
100
AcDbLine
 10
131.272736
 20
92.763138
 30
0.0
 11
131.390076
 21
92.558594
 31
0.0
210
0.0
220
0.0
230
1.0
  0
LINE
  5
239
100
AcDbEntity
  8
0
 62
   172
 48
0.005793
100
AcDbLine
 10
131.390076
 20
92.558594
 30
0.0
 11
131.521118
 21
92.367508
 31
0.0
210
0.0
220
0.0
230
1.0
  0
LINE
  5
23A
100
AcDbEntity
  8
0
 62
   172
 48
0.005729
100
AcDbLine
 10
131.521118
 20
92.367508
 30
0.0
 11
131.665863
 21
92.189857
 31
0.0
210
0.0
220
0.0
230
1.0
  0
LINE
  5
23B
100
AcDbEntity
  8
0
 62
   172
 48
0.005705
100
AcDbLine
 10
131.665863
 20
92.189857
 30
0.0
 11
131.824326
 21
92.025665
 31
0.0
210
0.0
220
0.0
230
1.0
  0
LINE
  5
23C
100
AcDbEntity
  8
0
 62
   172
 48
0.00572
100
AcDbLine
 10
131.824326
 20
92.025665
 30
0.0
 11
131.99646
 21
91.874908
 31
0.0
210
0.0
220
0.0
230
1.0
  0
LINE
  5
23D
100
AcDbEntity
  8
0
 62
   172
 48
0.005777
100
AcDbLine
 10
131.99646
 20
91.874908
 30
0.0
 11
132.182327
 21
91.73761
 31
0.0
210
0.0
220
0.0
230
1.0
  0
LINE
  5
23E
100
AcDbEntity
  8
0
 62
   172
 48
0.005766
100
AcDbLine
 10
132.182327
 20
91.73761
 30
0.0
 11
132.378479
 21
91.61631
 31
0.0
210
0.0
220
0.0
230
1.0
  0
LINE
  5
23F
100
AcDbEntity
  8
0
 62
   172
 48
0.005688
100
AcDbLine
 10
132.378479
 20
91.61631
 30
0.0
 11
132.581482
 21
91.51355
 31
0.0
210
0.0
220
0.0
230
1.0
  0
LINE
  5
240
100
AcDbEntity
  8
0
 62
   172
 48
0.005654
100
AcDbLine
 10
132.581482
 20
91.51355
 30
0.0
 11
132.791367
 21
91.429352
 31
0.0
210
0.0
220
0.0
230
1.0
  0
LINE
  5
241
100
AcDbEntity
  8
0
 62
   172
 48
0.005662
100
AcDbLine
 10
132.791367
 20
91.429352
 30
0.0
 11
133.008102
 21
91.363686
 31
0.0
210
0.0
220
0.0
230
1.0
  0
LINE
  5
242
100
AcDbEntity
  8
0
 62
   172
 48
0.005713
100
AcDbLine
 10
133.008102
 20
91.363686
 30
0.0
 11
133.23172
 21
91.316574
 31
0.0
210
0.0
220
0.0
230
1.0
  0
LINE
  5
243
100
AcDbEntity
  8
0
 62
   172
 48
0.005806
100
AcDbLine
 10
133.23172
 20
91.316574
 30
0.0
 11
133.462189
 21
91.28801
 31
0.0
210
0.0
220
0.0
230
1.0
  0
LINE
  5
244
100
AcDbEntity
  8
0
 62
   172
 48
0.005939
100
AcDbLine
 10
133.462189
 20
91.28801
 30
0.0
 11
133.699554
 21
91.277992
 31
0.0
210
0.0
220
0.0
230
1.0
  0
LINE
  5
245
100
AcDbEntity
  8
0
 62
   172
 48
0.006109
100
AcDbLine
 10
133.699554
 20
91.277992
 30
0.0
 11
133.943756
 21
91.28653
 31
0.0
210
0.0
220
0.0
230
1.0
  0
LINE
  5
246
100
AcDbEntity
  8
0
 62
   172
 48
0.006313
100
AcDbLine
 10
133.943756
 20
91.28653
 30
0.0
 11
134.194839
 21
91.313599
 31
0.0
210
0.0
220
0.0
230
1.0
  0
LINE
  5
247
100
AcDbEntity
  8
0
 62
   172
 48
0.006548
100
AcDbLine
 10
134.194839
 20
91.313599
 30
0.0
 11
134.452774
 21
91.359222
 31
0.0
210
0.0
220
0.0
230
1.0
  0
LINE
  5
248
100
AcDbEntity
  8
0
 62
   172
 48
0.009935
100
AcDbLine
 10
134.452774
 20
91.359222
 30
0.0
 11
134.837357
 21
91.459412
 31
0.0
210
0.0
220
0.0
230
1.0
  0
LINE
  5
249
100
AcDbEntity
  8
0
 62
   172
 48
0.009472
100
AcDbLine
 10
134.837357
 20
91.459412
 30
0.0
 11
135.19223
 21
91.592178
 31
0.0
210
0.0
220
0.0
230
1.0
  0
LINE
  5
24A
100
AcDbEntity
  8
0
 62
   172
 48
0.009119
100
AcDbLine
 10
135.19223
 20
91.592178
 30
0.0
 11
135.51738
 21
91.757523
 31
0.0
210
0.0
220
0.0
230
1.0
  0
LINE
  5
24B
100
AcDbEntity
  8
0
 62
   172
 48
0.00889
100
AcDbLine
 10
135.51738
 20
91.757523
 30
0.0
 11
135.81282
 21
91.95546
 31
0.0
210
0.0
220
0.0
230
1.0
  0
LINE
  5
24C
100
AcDbEntity
  8
0
 62
   172
 48
0.008794
100
AcDbLine
 10
135.81282
 20
91.95546
 30
0.0
 11
136.078537
 21
92.185966
 31
0.0
210
0.0
220
0.0
230
1.0
  0
LINE
  5
24D
100
AcDbEntity
  8
0
 62
   172
 48
0.008836
100
AcDbLine
 10
136.078537
 20
92.185966
 30
0.0
 11
136.314545
 21
92.449066
 31
0.0
210
0.0
220
0.0
230
1.0
  0
LINE
  5
24E
100
AcDbEntity
  8
0
 62
   172
 48
0.009013
100
AcDbLine
 10
136.314545
 20
92.449066
 30
0.0
 11
136.520844
 21
92.744736
 31
0.0
210
0.0
220
0.0
230
1.0
  0
LINE
  5
24F
100
AcDbEntity
  8
0
 62
   172
 48
0.009318
100
AcDbLine
 10
136.520844
 20
92.744736
 30
0.0
 11
136.697418
 21
93.072998
 31
0.0
210
0.0
220
0.0
230
1.0
  0
LINE
  5
250
100
AcDbEntity
  8
0
 62
   172
 48
0.00974
100
AcDbLine
 10
136.697418
 20
93.072998
 30
0.0
 11
136.844299
 21
93.433838
 31
0.0
210
0.0
220
0.0
230
1.0
  0
LINE
  5
251
100
AcDbEntity
  8
0
 62
   172
 48
0.010262
100
AcDbLine
 10
136.844299
 20
93.433838
 30
0.0
 11
136.961441
 21
93.827255
 31
0.0
210
0.0
220
0.0
230
1.0
  0
LINE
  5
252
100
AcDbEntity
  8
0
 62
   172
 48
0.040043
100
AcDbLine
 10
136.961441
 20
93.827255
 30
0.0
 11
135.361115
 21
93.760208
 31
0.0
210
0.0
220
0.0
230
1.0
  0
LINE
  5
253
100
AcDbEntity
  8
0
 62
   172
 48
0.004985
100
AcDbLine
 10
135.361115
 20
93.760208
 30
0.0
 11
135.29689
 21
93.571442
 31
0.0
210
0.0
220
0.0
230
1.0
  0
LINE
  5
254
100
AcDbEntity
  8
0
 62
   172
 48
0.004712
100
AcDbLine
 10
135.29689
 20
93.571442
 30
0.0
 11
135.22139
 21
93.398758
 31
0.0
210
0.0
220
0.0
230
1.0
  0
LINE
  5
255
100
AcDbEntity
  8
0
 62
   172
 48
0.004476
100
AcDbLine
 10
135.22139
 20
93.398758
 30
0.0
 11
135.134644
 21
93.242157
 31
0.0
210
0.0
220
0.0
230
1.0
  0
LINE
  5
256
100
AcDbEntity
  8
0
 62
   172
 48
0.004283
100
AcDbLine
 10
135.134644
 20
93.242157
 30
0.0
 11
135.036636
 21
93.101639
 31
0.0
210
0.0
220
0.0
230
1.0
  0
LINE
  5
257
100
AcDbEntity
  8
0
 62
   172
 48
0.00414
100
AcDbLine
 10
135.036636
 20
93.101639
 30
0.0
 11
134.927368
 21
92.977219
 31
0.0
210
0.0
220
0.0
230
1.0
  0
LINE
  5
258
100
AcDbEntity
  8
0
 62
   172
 48
0.004052
100
AcDbLine
 10
134.927368
 20
92.977219
 30
0.0
 11
134.806839
 21
92.868874
 31
0.0
210
0.0
220
0.0
230
1.0
  0
LINE
  5
259
100
AcDbEntity
  8
0
 62
   172
 48
0.004021
100
AcDbLine
 10
134.806839
 20
92.868874
 30
0.0
 11
134.675064
 21
92.776627
 31
0.0
210
0.0
220
0.0
230
1.0
  0
LINE
  5
25A
100
AcDbEntity
  8
0
 62
   172
 48
0.004051
100
AcDbLine
 10
134.675064
 20
92.776627
 30
0.0
 11
134.532028
 21
92.700455
 31
0.0
210
0.0
220
0.0
230
1.0
  0
LINE
  5
25B
100
AcDbEntity
  8
0
 62
   172
 48
0.00414
100
AcDbLine
 10
134.532028
 20
92.700455
 30
0.0
 11
134.377716
 21
92.640366
 31
0.0
210
0.0
220
0.0
230
1.0
  0
LINE
  5
25C
100
AcDbEntity
  8
0
 62
   172
 48
0.004283
100
AcDbLine
 10
134.377716
 20
92.640366
 30
0.0
 11
134.212158
 21
92.596375
 31
0.0
210
0.0
220
0.0
230
1.0
  0
LINE
  5
25D
100
AcDbEntity
  8
0
 62
   172
 48
0.006044
100
AcDbLine
 10
134.212158
 20
92.596375
 30
0.0
 11
133.972778
 21
92.562531
 31
0.0
210
0.0
220
0.0
230
1.0
  0
LINE
  5
25E
100
AcDbEntity
  8
0
 62
   172
 48
0.005529
100
AcDbLine
 10
133.972778
 20
92.562531
 30
0.0
 11
133.751648
 21
92.565384
 31
0.0
210
0.0
220
0.0
230
1.0
  0
LINE
  5
25F
100
AcDbEntity
  8
0
 62
   172
 48
0.005168
100
AcDbLine
 10
133.751648
 20
92.565384
 30
0.0
 11
133.548752
 21
92.604927
 31
0.0
210
0.0
220
0.0
230
1.0
  0
LINE
  5
260
100
AcDbEntity
  8
0
 62
   172
 48
0.004995
100
AcDbLine
 10
133.548752
 20
92.604927
 30
0.0
 11
133.364075
 21
92.681168
 31
0.0
210
0.0
220
0.0
230
1.0
  0
LINE
  5
261
100
AcDbEntity
  8
0
 62
   172
 48
0.005028
100
AcDbLine
 10
133.364075
 20
92.681168
 30
0.0
 11
133.197662
 21
92.794106
 31
0.0
210
0.0
220
0.0
230
1.0
  0
LINE
  5
262
100
AcDbEntity
  8
0
 62
   172
 48
0.005265
100
AcDbLine
 10
133.197662
 20
92.794106
 30
0.0
 11
133.049484
 21
92.943741
 31
0.0
210
0.0
220
0.0
230
1.0
  0
LINE
  5
263
100
AcDbEntity
  8
0
 62
   172
 48
0.005679
100
AcDbLine
 10
133.049484
 20
92.943741
 30
0.0
 11
132.919525
 21
93.130066
 31
0.0
210
0.0
220
0.0
230
1.0
  0
LINE
  5
264
100
AcDbEntity
  8
0
 62
   172
 48
0.006236
100
AcDbLine
 10
132.919525
 20
93.130066
 30
0.0
 11
132.807831
 21
93.353088
 31
0.0
210
0.0
220
0.0
230
1.0
  0
LINE
  5
265
100
AcDbEntity
  8
0
 62
   172
 48
0.006901
100
AcDbLine
 10
132.807831
 20
93.353088
 30
0.0
 11
132.714355
 21
93.612808
 31
0.0
210
0.0
220
0.0
230
1.0
  0
LINE
  5
266
100
AcDbEntity
  8
0
 62
   172
 48
0.007645
100
AcDbLine
 10
132.714355
 20
93.612808
 30
0.0
 11
132.63913
 21
93.909225
 31
0.0
210
0.0
220
0.0
230
1.0
  0
LINE
  5
267
100
AcDbEntity
  8
0
 62
   172
 48
0.110502
100
AcDbLine
 10
132.63913
 20
93.909225
 30
0.0
 11
136.964813
 21
94.817749
 31
0.0
210
0.0
220
0.0
230
1.0
  0
LINE
  5
268
100
AcDbEntity
  8
0
 62
   172
 48
0.004467
100
AcDbLine
 10
135.290283
 20
95.561539
 30
0.0
 11
135.253555
 21
95.736404
 31
0.0
210
0.0
220
0.0
230
1.0
  0
LINE
  5
269
100
AcDbEntity
  8
0
 62
   172
 48
0.006886
100
AcDbLine
 10
135.253555
 20
95.736404
 30
0.0
 11
135.185303
 21
96.00325
 31
0.0
210
0.0
220
0.0
230
1.0
  0
LINE
  5
26A
100
AcDbEntity
  8
0
 62
   172
 48
0.00622
100
AcDbLine
 10
135.185303
 20
96.00325
 30
0.0
 11
135.09964
 21
96.236832
 31
0.0
210
0.0
220
0.0
230
1.0
  0
LINE
  5
26B
100
AcDbEntity
  8
0
 62
   172
 48
0.005633
100
AcDbLine
 10
135.09964
 20
96.236832
 30
0.0
 11
134.996536
 21
96.437164
 31
0.0
210
0.0
220
0.0
230
1.0
  0
LINE
  5
26C
100
AcDbEntity
  8
0
 62
   172
 48
0.00515
100
AcDbLine
 10
134.996536
 20
96.437164
 30
0.0
 11
134.876022
 21
96.604233
 31
0.0
210
0.0
220
0.0
230
1.0
  0
LINE
  5
26D
100
AcDbEntity
  8
0
 62
   172
 48
0.004805
100
AcDbLine
 10
134.876022
 20
96.604233
 30
0.0
 11
134.738068
 21
96.738045
 31
0.0
210
0.0
220
0.0
230
1.0
  0
LINE
  5
26E
100
AcDbEntity
  8
0
 62
   172
 48
0.004627
100
AcDbLine
 10
134.738068
 20
96.738045
 30
0.0
 11
134.582703
 21
96.838608
 31
0.0
210
0.0
220
0.0
230
1.0
  0
LINE
  5
26F
100
AcDbEntity
  8
0
 62
   172
 48
0.004635
100
AcDbLine
 10
134.582703
 20
96.838608
 30
0.0
 11
134.409927
 21
96.905907
 31
0.0
210
0.0
220
0.0
230
1.0
  0
LINE
  5
270
100
AcDbEntity
  8
0
 62
   172
 48
0.004831
100
AcDbLine
 10
134.409927
 20
96.905907
 30
0.0
 11
134.219711
 21
96.939949
 31
0.0
210
0.0
220
0.0
230
1.0
  0
LINE
  5
271
100
AcDbEntity
  8
0
 62
   172
 48
0.005191
100
AcDbLine
 10
134.219711
 20
96.939949
 30
0.0
 11
134.01207
 21
96.940735
 31
0.0
210
0.0
220
0.0
230
1.0
  0
LINE
  5
272
100
AcDbEntity
  8
0
 62
   172
 48
0.005685
100
AcDbLine
 10
134.01207
 20
96.940735
 30
0.0
 11
133.787003
 21
96.908264
 31
0.0
210
0.0
220
0.0
230
1.0
  0
LINE
  5
273
100
AcDbEntity
  8
0
 62
   172
 48
0.006077
100
AcDbLine
 10
133.787003
 20
96.908264
 30
0.0
 11
133.552994
 21
96.842484
 31
0.0
210
0.0
220
0.0
230
1.0
  0
LINE
  5
274
100
AcDbEntity
  8
0
 62
   172
 48
0.00572
100
AcDbLine
 10
133.552994
 20
96.842484
 30
0.0
 11
133.344254
 21
96.748772
 31
0.0
210
0.0
220
0.0
230
1.0
  0
LINE
  5
275
100
AcDbEntity
  8
0
 62
   172
 48
0.005503
100
AcDbLine
 10
133.344254
 20
96.748772
 30
0.0
 11
133.160797
 21
96.627121
 31
0.0
210
0.0
220
0.0
230
1.0
  0
LINE
  5
276
100
AcDbEntity
  8
0
 62
   172
 48
0.005443
100
AcDbLine
 10
133.160797
 20
96.627121
 30
0.0
 11
133.002625
 21
96.477524
 31
0.0
210
0.0
220
0.0
230
1.0
  0
LINE
  5
277
100
AcDbEntity
  8
0
 62
   172
 48
0.005544
100
AcDbLine
 10
133.002625
 20
96.477524
 30
0.0
 11
132.869736
 21
96.299988
 31
0.0
210
0.0
220
0.0
230
1.0
  0
LINE
  5
278
100
AcDbEntity
  8
0
 62
   172
 48
0.005799
100
AcDbLine
 10
132.869736
 20
96.299988
 30
0.0
 11
132.762115
 21
96.094513
 31
0.0
210
0.0
220
0.0
230
1.0
  0
LINE
  5
279
100
AcDbEntity
  8
0
 62
   172
 48
0.006188
100
AcDbLine
 10
132.762115
 20
96.094513
 30
0.0
 11
132.679779
 21
95.861099
 31
0.0
210
0.0
220
0.0
230
1.0
  0
LINE
  5
27A
100
AcDbEntity
  8
0
 62
   172
 48
0.006688
100
AcDbLine
 10
132.679779
 20
95.861099
 30
0.0
 11
132.622711
 21
95.599747
 31
0.0
210
0.0
220
0.0
230
1.0
  0
LINE
  5
27B
100
AcDbEntity
  8
0
 62
   172
 48
0.007276
100
AcDbLine
 10
132.622711
 20
95.599747
 30
0.0
 11
132.590927
 21
95.310455
 31
0.0
210
0.0
220
0.0
230
1.0
  0
LINE
  5
27C
100
AcDbEntity
  8
0
 62
   172
 48
0.007932
100
AcDbLine
 10
132.590927
 20
95.310455
 30
0.0
 11
132.584427
 21
94.993225
 31
0.0
210
0.0
220
0.0
230
1.0
  0
LINE
  5
27D
100
AcDbEntity
  8
0
 62
   172
 48
0.069122
100
AcDbLine
 10
132.584427
 20
94.993225
 30
0.0
 11
135.290283
 21
95.561539
 31
0.0
210
0.0
220
0.0
230
1.0
  0
LINE
  5
27E
100
AcDbEntity
  8
0
 62
   172
 48
0.043483
100
AcDbLine
 10
129.701218
 20
79.617615
 30
0.0
 11
129.70137
 21
77.878311
 31
0.0
210
0.0
220
0.0
230
1.0
  0
LINE
  5
27F
100
AcDbEntity
  8
0
 62
   172
 48
0.043495
100
AcDbLine
 10
129.70137
 20
77.878311
 30
0.0
 11
131.404022
 21
78.235924
 31
0.0
210
0.0
220
0.0
230
1.0
  0
LINE
  5
280
100
AcDbEntity
  8
0
 62
   172
 48
0.043482
100
AcDbLine
 10
131.404022
 20
78.235924
 30
0.0
 11
131.403885
 21
79.97522
 31
0.0
210
0.0
220
0.0
230
1.0
  0
LINE
  5
281
100
AcDbEntity
  8
0
 62
   172
 48
0.043495
100
AcDbLine
 10
131.403885
 20
79.97522
 30
0.0
 11
129.701218
 21
79.617615
 31
0.0
210
0.0
220
0.0
230
1.0
  0
LINE
  5
282
100
AcDbEntity
  8
0
 62
   172
 48
0.031269
100
AcDbLine
 10
136.175598
 20
85.897537
 30
0.0
 11
134.951538
 21
85.64045
 31
0.0
210
0.0
220
0.0
230
1.0
  0
LINE
  5
283
100
AcDbEntity
  8
0
 62
   172
 48
0.011807
100
AcDbLine
 10
134.951538
 20
85.64045
 30
0.0
 11
134.958054
 21
86.112686
 31
0.0
210
0.0
220
0.0
230
1.0
  0
LINE
  5
284
100
AcDbEntity
  8
0
 62
   172
 48
0.002739
100
AcDbLine
 10
134.958054
 20
86.112686
 30
0.0
 11
134.95993
 21
86.222244
 31
0.0
210
0.0
220
0.0
230
1.0
  0
LINE
  5
285
100
AcDbEntity
  8
0
 62
   172
 48
0.002537
100
AcDbLine
 10
134.95993
 20
86.222244
 30
0.0
 11
134.963333
 21
86.323669
 31
0.0
210
0.0
220
0.0
230
1.0
  0
LINE
  5
286
100
AcDbEntity
  8
0
 62
   172
 48
0.002335
100
AcDbLine
 10
134.963333
 20
86.323669
 30
0.0
 11
134.968246
 21
86.416954
 31
0.0
210
0.0
220
0.0
230
1.0
  0
LINE
  5
287
100
AcDbEntity
  8
0
 62
   172
 48
0.002135
100
AcDbLine
 10
134.968246
 20
86.416954
 30
0.0
 11
134.97467
 21
86.502098
 31
0.0
210
0.0
220
0.0
230
1.0
  0
LINE
  5
288
100
AcDbEntity
  8
0
 62
   172
 48
0.001935
100
AcDbLine
 10
134.97467
 20
86.502098
 30
0.0
 11
134.98262
 21
86.579102
 31
0.0
210
0.0
220
0.0
230
1.0
  0
LINE
  5
289
100
AcDbEntity
  8
0
 62
   172
 48
0.001738
100
AcDbLine
 10
134.98262
 20
86.579102
 30
0.0
 11
134.992081
 21
86.64798
 31
0.0
210
0.0
220
0.0
230
1.0
  0
LINE
  5
28A
100
AcDbEntity
  8
0
 62
   172
 48
0.001543
100
AcDbLine
 10
134.992081
 20
86.64798
 30
0.0
 11
135.003052
 21
86.70871
 31
0.0
210
0.0
220
0.0
230
1.0
  0
LINE
  5
28B
100
AcDbEntity
  8
0
 62
   172
 48
0.001351
100
AcDbLine
 10
135.003052
 20
86.70871
 30
0.0
 11
135.015564
 21
86.761299
 31
0.0
210
0.0
220
0.0
230
1.0
  0
LINE
  5
28C
100
AcDbEntity
  8
0
 62
   172
 48
0.001165
100
AcDbLine
 10
135.015564
 20
86.761299
 30
0.0
 11
135.029556
 21
86.805756
 31
0.0
210
0.0
220
0.0
230
1.0
  0
LINE
  5
28D
100
AcDbEntity
  8
0
 62
   172
 48
0.000988
100
AcDbLine
 10
135.029556
 20
86.805756
 30
0.0
 11
135.045105
 21
86.842079
 31
0.0
210
0.0
220
0.0
230
1.0
  0
LINE
  5
28E
100
AcDbEntity
  8
0
 62
   172
 48
0.000907
100
AcDbLine
 10
135.045105
 20
86.842079
 30
0.0
 11
135.063507
 21
86.873329
 31
0.0
210
0.0
220
0.0
230
1.0
  0
LINE
  5
28F
100
AcDbEntity
  8
0
 62
   172
 48
0.000926
100
AcDbLine
 10
135.063507
 20
86.873329
 30
0.0
 11
135.086197
 21
86.902603
 31
0.0
210
0.0
220
0.0
230
1.0
  0
LINE
  5
290
100
AcDbEntity
  8
0
 62
   172
 48
0.000959
100
AcDbLine
 10
135.086197
 20
86.902603
 30
0.0
 11
135.113144
 21
86.929886
 31
0.0
210
0.0
220
0.0
230
1.0
  0
LINE
  5
291
100
AcDbEntity
  8
0
 62
   172
 48
0.001004
100
AcDbLine
 10
135.113144
 20
86.929886
 30
0.0
 11
135.144348
 21
86.95517
 31
0.0
210
0.0
220
0.0
230
1.0
  0
LINE
  5
292
100
AcDbEntity
  8
0
 62
   172
 48
0.001061
100
AcDbLine
 10
135.144348
 20
86.95517
 30
0.0
 11
135.17981
 21
86.978477
 31
0.0
210
0.0
220
0.0
230
1.0
  0
LINE
  5
293
100
AcDbEntity
  8
0
 62
   172
 48
0.001127
100
AcDbLine
 10
135.17981
 20
86.978477
 30
0.0
 11
135.219528
 21
86.999794
 31
0.0
210
0.0
220
0.0
230
1.0
  0
LINE
  5
294
100
AcDbEntity
  8
0
 62
   172
 48
0.001201
100
AcDbLine
 10
135.219528
 20
86.999794
 30
0.0
 11
135.263519
 21
87.019119
 31
0.0
210
0.0
220
0.0
230
1.0
  0
LINE
  5
295
100
AcDbEntity
  8
0
 62
   172
 48
0.001282
100
AcDbLine
 10
135.263519
 20
87.019119
 30
0.0
 11
135.311768
 21
87.036461
 31
0.0
210
0.0
220
0.0
230
1.0
  0
LINE
  5
296
100
AcDbEntity
  8
0
 62
   172
 48
0.001368
100
AcDbLine
 10
135.311768
 20
87.036461
 30
0.0
 11
135.364288
 21
87.051819
 31
0.0
210
0.0
220
0.0
230
1.0
  0
LINE
  5
297
100
AcDbEntity
  8
0
 62
   172
 48
0.001458
100
AcDbLine
 10
135.364288
 20
87.051819
 30
0.0
 11
135.421051
 21
87.065186
 31
0.0
210
0.0
220
0.0
230
1.0
  0
LINE
  5
298
100
AcDbEntity
  8
0
 62
   172
 48
0.002035
100
AcDbLine
 10
135.421051
 20
87.065186
 30
0.0
 11
135.501129
 21
87.079788
 31
0.0
210
0.0
220
0.0
230
1.0
  0
LINE
  5
299
100
AcDbEntity
  8
0
 62
   172
 48
0.002157
100
AcDbLine
 10
135.501129
 20
87.079788
 30
0.0
 11
135.58667
 21
87.091125
 31
0.0
210
0.0
220
0.0
230
1.0
  0
LINE
  5
29A
100
AcDbEntity
  8
0
 62
   172
 48
0.002285
100
AcDbLine
 10
135.58667
 20
87.091125
 30
0.0
 11
135.677704
 21
87.09919
 31
0.0
210
0.0
220
0.0
230
1.0
  0
LINE
  5
29B
100
AcDbEntity
  8
0
 62
   172
 48
0.002416
100
AcDbLine
 10
135.677704
 20
87.09919
 30
0.0
 11
135.774231
 21
87.103996
 31
0.0
210
0.0
220
0.0
230
1.0
  0
LINE
  5
29C
100
AcDbEntity
  8
0
 62
   172
 48
0.002551
100
AcDbLine
 10
135.774231
 20
87.103996
 30
0.0
 11
135.876251
 21
87.10553
 31
0.0
210
0.0
220
0.0
230
1.0
  0
LINE
  5
29D
100
AcDbEntity
  8
0
 62
   172
 48
0.002688
100
AcDbLine
 10
135.876251
 20
87.10553
 30
0.0
 11
135.983765
 21
87.103806
 31
0.0
210
0.0
220
0.0
230
1.0
  0
LINE
  5
29E
100
AcDbEntity
  8
0
 62
   172
 48
0.002828
100
AcDbLine
 10
135.983765
 20
87.103806
 30
0.0
 11
136.096756
 21
87.098801
 31
0.0
210
0.0
220
0.0
230
1.0
  0
LINE
  5
29F
100
AcDbEntity
  8
0
 62
   172
 48
0.00297
100
AcDbLine
 10
136.096756
 20
87.098801
 30
0.0
 11
136.215256
 21
87.090538
 31
0.0
210
0.0
220
0.0
230
1.0
  0
LINE
  5
2A0
100
AcDbEntity
  8
0
 62
   172
 48
0.003113
100
AcDbLine
 10
136.215256
 20
87.090538
 30
0.0
 11
136.339233
 21
87.079002
 31
0.0
210
0.0
220
0.0
230
1.0
  0
LINE
  5
2A1
100
AcDbEntity
  8
0
 62
   172
 48
0.003258
100
AcDbLine
 10
136.339233
 20
87.079002
 30
0.0
 11
136.468719
 21
87.064209
 31
0.0
210
0.0
220
0.0
230
1.0
  0
LINE
  5
2A2
100
AcDbEntity
  8
0
 62
   172
 48
0.032621
100
AcDbLine
 10
136.468719
 20
87.064209
 30
0.0
 11
136.541
 21
88.367065
 31
0.0
210
0.0
220
0.0
230
1.0
  0
LINE
  5
2A3
100
AcDbEntity
  8
0
 62
   172
 48
0.004656
100
AcDbLine
 10
136.541
 20
88.367065
 30
0.0
 11
136.355591
 21
88.384727
 31
0.0
210
0.0
220
0.0
230
1.0
  0
LINE
  5
2A4
100
AcDbEntity
  8
0
 62
   172
 48
0.004575
100
AcDbLine
 10
136.355591
 20
88.384727
 30
0.0
 11
136.173019
 21
88.397026
 31
0.0
210
0.0
220
0.0
230
1.0
  0
LINE
  5
2A5
100
AcDbEntity
  8
0
 62
   172
 48
0.004496
100
AcDbLine
 10
136.173019
 20
88.397026
 30
0.0
 11
135.993301
 21
88.403961
 31
0.0
210
0.0
220
0.0
230
1.0
  0
LINE
  5
2A6
100
AcDbEntity
  8
0
 62
   172
 48
0.004422
100
AcDbLine
 10
135.993301
 20
88.403961
 30
0.0
 11
135.816437
 21
88.40554
 31
0.0
210
0.0
220
0.0
230
1.0
  0
LINE
  5
2A7
100
AcDbEntity
  8
0
 62
   172
 48
0.004351
100
AcDbLine
 10
135.816437
 20
88.40554
 30
0.0
 11
135.642426
 21
88.401764
 31
0.0
210
0.0
220
0.0
230
1.0
  0
LINE
  5
2A8
100
AcDbEntity
  8
0
 62
   172
 48
0.004285
100
AcDbLine
 10
135.642426
 20
88.401764
 30
0.0
 11
135.471283
 21
88.392632
 31
0.0
210
0.0
220
0.0
230
1.0
  0
LINE
  5
2A9
100
AcDbEntity
  8
0
 62
   172
 48
0.004223
100
AcDbLine
 10
135.471283
 20
88.392632
 30
0.0
 11
135.302994
 21
88.378136
 31
0.0
210
0.0
220
0.0
230
1.0
  0
LINE
  5
2AA
100
AcDbEntity
  8
0
 62
   172
 48
0.004166
100
AcDbLine
 10
135.302994
 20
88.378136
 30
0.0
 11
135.137558
 21
88.358284
 31
0.0
210
0.0
220
0.0
230
1.0
  0
LINE
  5
2AB
100
AcDbEntity
  8
0
 62
   172
 48
0.004113
100
AcDbLine
 10
135.137558
 20
88.358284
 30
0.0
 11
134.974976
 21
88.333069
 31
0.0
210
0.0
220
0.0
230
1.0
  0
LINE
  5
2AC
100
AcDbEntity
  8
0
 62
   172
 48
0.004066
100
AcDbLine
 10
134.974976
 20
88.333069
 30
0.0
 11
134.815231
 21
88.302505
 31
0.0
210
0.0
220
0.0
230
1.0
  0
LINE
  5
2AD
100
AcDbEntity
  8
0
 62
   172
 48
0.004925
100
AcDbLine
 10
134.815231
 20
88.302505
 30
0.0
 11
134.623413
 21
88.257698
 31
0.0
210
0.0
220
0.0
230
1.0
  0
LINE
  5
2AE
100
AcDbEntity
  8
0
 62
   172
 48
0.004624
100
AcDbLine
 10
134.623413
 20
88.257698
 30
0.0
 11
134.445587
 21
88.206802
 31
0.0
210
0.0
220
0.0
230
1.0
  0
LINE
  5
2AF
100
AcDbEntity
  8
0
 62
   172
 48
0.004338
100
AcDbLine
 10
134.445587
 20
88.206802
 30
0.0
 11
134.281693
 21
88.149788
 31
0.0
210
0.0
220
0.0
230
1.0
  0
LINE
  5
2B0
100
AcDbEntity
  8
0
 62
   172
 48
0.004066
100
AcDbLine
 10
134.281693
 20
88.149788
 30
0.0
 11
134.131775
 21
88.086685
 31
0.0
210
0.0
220
0.0
230
1.0
  0
LINE
  5
2B1
100
AcDbEntity
  8
0
 62
   172
 48
0.003813
100
AcDbLine
 10
134.131775
 20
88.086685
 30
0.0
 11
133.995834
 21
88.017487
 31
0.0
210
0.0
220
0.0
230
1.0
  0
LINE
  5
2B2
100
AcDbEntity
  8
0
 62
   172
 48
0.003584
100
AcDbLine
 10
133.995834
 20
88.017487
 30
0.0
 11
133.87384
 21
87.942184
 31
0.0
210
0.0
220
0.0
230
1.0
  0
LINE
  5
2B3
100
AcDbEntity
  8
0
 62
   172
 48
0.003381
100
AcDbLine
 10
133.87384
 20
87.942184
 30
0.0
 11
133.765823
 21
87.860786
 31
0.0
210
0.0
220
0.0
230
1.0
  0
LINE
  5
2B4
100
AcDbEntity
  8
0
 62
   172
 48
0.003212
100
AcDbLine
 10
133.765823
 20
87.860786
 30
0.0
 11
133.671768
 21
87.773277
 31
0.0
210
0.0
220
0.0
230
1.0
  0
LINE
  5
2B5
100
AcDbEntity
  8
0
 62
   172
 48
0.00308
100
AcDbLine
 10
133.671768
 20
87.773277
 30
0.0
 11
133.591675
 21
87.679672
 31
0.0
210
0.0
220
0.0
230
1.0
  0
LINE
  5
2B6
100
AcDbEntity
  8
0
 62
   172
 48
0.002991
100
AcDbLine
 10
133.591675
 20
87.679672
 30
0.0
 11
133.525558
 21
87.579979
 31
0.0
210
0.0
220
0.0
230
1.0
  0
LINE
  5
2B7
100
AcDbEntity
  8
0
 62
   172
 48
0.003058
100
AcDbLine
 10
133.525558
 20
87.579979
 30
0.0
 11
133.469391
 21
87.471313
 31
0.0
210
0.0
220
0.0
230
1.0
  0
LINE
  5
2B8
100
AcDbEntity
  8
0
 62
   172
 48
0.003263
100
AcDbLine
 10
133.469391
 20
87.471313
 30
0.0
 11
133.419159
 21
87.35083
 31
0.0
210
0.0
220
0.0
230
1.0
  0
LINE
  5
2B9
100
AcDbEntity
  8
0
 62
   172
 48
0.003488
100
AcDbLine
 10
133.419159
 20
87.35083
 30
0.0
 11
133.374878
 21
87.218529
 31
0.0
210
0.0
220
0.0
230
1.0
  0
LINE
  5
2BA
100
AcDbEntity
  8
0
 62
   172
 48
0.003728
100
AcDbLine
 10
133.374878
 20
87.218529
 30
0.0
 11
133.336533
 21
87.074409
 31
0.0
210
0.0
220
0.0
230
1.0
  0
LINE
  5
2BB
100
AcDbEntity
  8
0
 62
   172
 48
0.003982
100
AcDbLine
 10
133.336533
 20
87.074409
 30
0.0
 11
133.304138
 21
86.918457
 31
0.0
210
0.0
220
0.0
230
1.0
  0
LINE
  5
2BC
100
AcDbEntity
  8
0
 62
   172
 48
0.004246
100
AcDbLine
 10
133.304138
 20
86.918457
 30
0.0
 11
133.277679
 21
86.750694
 31
0.0
210
0.0
220
0.0
230
1.0
  0
LINE
  5
2BD
100
AcDbEntity
  8
0
 62
   172
 48
0.004519
100
AcDbLine
 10
133.277679
 20
86.750694
 30
0.0
 11
133.257156
 21
86.571106
 31
0.0
210
0.0
220
0.0
230
1.0
  0
LINE
  5
2BE
100
AcDbEntity
  8
0
 62
   172
 48
0.004799
100
AcDbLine
 10
133.257156
 20
86.571106
 30
0.0
 11
133.242599
 21
86.3797
 31
0.0
210
0.0
220
0.0
230
1.0
  0
LINE
  5
2BF
100
AcDbEntity
  8
0
 62
   172
 48
0.005085
100
AcDbLine
 10
133.242599
 20
86.3797
 30
0.0
 11
133.233978
 21
86.176468
 31
0.0
210
0.0
220
0.0
230
1.0
  0
LINE
  5
2C0
100
AcDbEntity
  8
0
 62
   172
 48
0.005377
100
AcDbLine
 10
133.233978
 20
86.176468
 30
0.0
 11
133.231277
 21
85.961418
 31
0.0
210
0.0
220
0.0
230
1.0
  0
LINE
  5
2C1
100
AcDbEntity
  8
0
 62
   172
 48
0.017061
100
AcDbLine
 10
133.231277
 20
85.961418
 30
0.0
 11
133.230469
 21
85.278969
 31
0.0
210
0.0
220
0.0
230
1.0
  0
LINE
  5
2C2
100
AcDbEntity
  8
0
 62
   172
 48
0.024687
100
AcDbLine
 10
133.230469
 20
85.278969
 30
0.0
 11
132.264084
 21
85.076004
 31
0.0
210
0.0
220
0.0
230
1.0
  0
LINE
  5
2C3
100
AcDbEntity
  8
0
 62
   172
 48
0.032876
100
AcDbLine
 10
132.264084
 20
85.076004
 30
0.0
 11
132.271225
 21
83.760986
 31
0.0
210
0.0
220
0.0
230
1.0
  0
LINE
  5
2C4
100
AcDbEntity
  8
0
 62
   172
 48
0.024451
100
AcDbLine
 10
132.271225
 20
83.760986
 30
0.0
 11
133.228394
 21
83.962021
 31
0.0
210
0.0
220
0.0
230
1.0
  0
LINE
  5
2C5
100
AcDbEntity
  8
0
 62
   172
 48
0.133536
100
AcDbLine
 10
133.228394
 20
83.962021
 30
0.0
 11
133.23555
 21
78.620598
 31
0.0
210
0.0
220
0.0
230
1.0
  0
LINE
  5
2C6
100
AcDbEntity
  8
0
 62
   172
 48
0.043965
100
AcDbLine
 10
133.23555
 20
78.620598
 30
0.0
 11
134.956619
 21
78.982071
 31
0.0
210
0.0
220
0.0
230
1.0
  0
LINE
  5
2C7
100
AcDbEntity
  8
0
 62
   172
 48
0.133536
100
AcDbLine
 10
134.956619
 20
78.982071
 30
0.0
 11
134.949463
 21
84.323502
 31
0.0
210
0.0
220
0.0
230
1.0
  0
LINE
  5
2C8
100
AcDbEntity
  8
0
 62
   172
 48
0.03127
100
AcDbLine
 10
134.949463
 20
84.323502
 30
0.0
 11
136.173538
 21
84.580589
 31
0.0
210
0.0
220
0.0
230
1.0
  0
LINE
  5
2C9
100
AcDbEntity
  8
0
 62
   172
 48
0.032924
100
AcDbLine
 10
136.173538
 20
84.580589
 30
0.0
 11
136.175598
 21
85.897537
 31
0.0
210
0.0
220
0.0
230
1.0
  0
LINE
  5
2CA
100
AcDbEntity
  8
0
 62
   172
 48
0.166459
100
AcDbLine
 10
137.059158
 20
86.083115
 30
0.0
 11
137.064224
 21
79.424744
 31
0.0
210
0.0
220
0.0
230
1.0
  0
LINE
  5
2CB
100
AcDbEntity
  8
0
 62
   172
 48
0.043965
100
AcDbLine
 10
137.064224
 20
79.424744
 30
0.0
 11
138.785294
 21
79.786217
 31
0.0
210
0.0
220
0.0
230
1.0
  0
LINE
  5
2CC
100
AcDbEntity
  8
0
 62
   172
 48
0.052153
100
AcDbLine
 10
138.785294
 20
79.786217
 30
0.0
 11
138.789185
 21
81.872314
 31
0.0
210
0.0
220
0.0
230
1.0
  0
LINE
  5
2CD
100
AcDbEntity
  8
0
 62
   172
 48
0.009654
100
AcDbLine
 10
138.789185
 20
81.872314
 30
0.0
 11
138.79213
 21
82.258469
 31
0.0
210
0.0
220
0.0
230
1.0
  0
LINE
  5
2CE
100
AcDbEntity
  8
0
 62
   172
 48
0.008991
100
AcDbLine
 10
138.79213
 20
82.258469
 30
0.0
 11
138.803452
 21
82.617943
 31
0.0
210
0.0
220
0.0
230
1.0
  0
LINE
  5
2CF
100
AcDbEntity
  8
0
 62
   172
 48
0.008334
100
AcDbLine
 10
138.803452
 20
82.617943
 30
0.0
 11
138.823166
 21
82.950729
 31
0.0
210
0.0
220
0.0
230
1.0
  0
LINE
  5
2D0
100
AcDbEntity
  8
0
 62
   172
 48
0.007685
100
AcDbLine
 10
138.823166
 20
82.950729
 30
0.0
 11
138.851273
 21
83.256836
 31
0.0
210
0.0
220
0.0
230
1.0
  0
LINE
  5
2D1
100
AcDbEntity
  8
0
 62
   172
 48
0.007045
100
AcDbLine
 10
138.851273
 20
83.256836
 30
0.0
 11
138.887772
 21
83.536255
 31
0.0
210
0.0
220
0.0
230
1.0
  0
LINE
  5
2D2
100
AcDbEntity
  8
0
 62
   172
 48
0.006417
100
AcDbLine
 10
138.887772
 20
83.536255
 30
0.0
 11
138.932648
 21
83.788994
 31
0.0
210
0.0
220
0.0
230
1.0
  0
LINE
  5
2D3
100
AcDbEntity
  8
0
 62
   172
 48
0.005806
100
AcDbLine
 10
138.932648
 20
83.788994
 30
0.0
 11
138.985916
 21
84.01506
 31
0.0
210
0.0
220
0.0
230
1.0
  0
LINE
  5
2D4
100
AcDbEntity
  8
0
 62
   172
 48
0.005217
100
AcDbLine
 10
138.985916
 20
84.01506
 30
0.0
 11
139.047592
 21
84.214432
 31
0.0
210
0.0
220
0.0
230
1.0
  0
LINE
  5
2D5
100
AcDbEntity
  8
0
 62
   172
 48
0.004659
100
AcDbLine
 10
139.047592
 20
84.214432
 30
0.0
 11
139.117661
 21
84.387131
 31
0.0
210
0.0
220
0.0
230
1.0
  0
LINE
  5
2D6
100
AcDbEntity
  8
0
 62
   172
 48
0.004144
100
AcDbLine
 10
139.117661
 20
84.387131
 30
0.0
 11
139.196106
 21
84.533142
 31
0.0
210
0.0
220
0.0
230
1.0
  0
LINE
  5
2D7
100
AcDbEntity
  8
0
 62
   172
 48
0.003835
100
AcDbLine
 10
139.196106
 20
84.533142
 30
0.0
 11
139.281433
 21
84.660614
 31
0.0
210
0.0
220
0.0
230
1.0
  0
LINE
  5
2D8
100
AcDbEntity
  8
0
 62
   172
 48
0.003702
100
AcDbLine
 10
139.281433
 20
84.660614
 30
0.0
 11
139.372116
 21
84.777679
 31
0.0
210
0.0
220
0.0
230
1.0
  0
LINE
  5
2D9
100
AcDbEntity
  8
0
 62
   172
 48
0.003588
100
AcDbLine
 10
139.372116
 20
84.777679
 30
0.0
 11
139.46814
 21
84.884338
 31
0.0
210
0.0
220
0.0
230
1.0
  0
LINE
  5
2DA
100
AcDbEntity
  8
0
 62
   172
 48
0.003495
100
AcDbLine
 10
139.46814
 20
84.884338
 30
0.0
 11
139.569534
 21
84.980583
 31
0.0
210
0.0
220
0.0
230
1.0
  0
LINE
  5
2DB
100
AcDbEntity
  8
0
 62
   172
 48
0.003425
100
AcDbLine
 10
139.569534
 20
84.980583
 30
0.0
 11
139.676285
 21
85.066429
 31
0.0
210
0.0
220
0.0
230
1.0
  0
LINE
  5
2DC
100
AcDbEntity
  8
0
 62
   172
 48
0.003378
100
AcDbLine
 10
139.676285
 20
85.066429
 30
0.0
 11
139.788391
 21
85.141869
 31
0.0
210
0.0
220
0.0
230
1.0
  0
LINE
  5
2DD
100
AcDbEntity
  8
0
 62
   172
 48
0.003356
100
AcDbLine
 10
139.788391
 20
85.141869
 30
0.0
 11
139.905853
 21
85.206894
 31
0.0
210
0.0
220
0.0
230
1.0
  0
LINE
  5
2DE
100
AcDbEntity
  8
0
 62
   172
 48
0.00336
100
AcDbLine
 10
139.905853
 20
85.206894
 30
0.0
 11
140.028671
 21
85.26152
 31
0.0
210
0.0
220
0.0
230
1.0
  0
LINE
  5
2DF
100
AcDbEntity
  8
0
 62
   172
 48
0.00339
100
AcDbLine
 10
140.028671
 20
85.26152
 30
0.0
 11
140.156845
 21
85.30574
 31
0.0
210
0.0
220
0.0
230
1.0
  0
LINE
  5
2E0
100
AcDbEntity
  8
0
 62
   172
 48
0.003444
100
AcDbLine
 10
140.156845
 20
85.30574
 30
0.0
 11
140.29039
 21
85.339554
 31
0.0
210
0.0
220
0.0
230
1.0
  0
LINE
  5
2E1
100
AcDbEntity
  8
0
 62
   172
 48
0.001354
100
AcDbLine
 10
140.29039
 20
85.339554
 30
0.0
 11
140.343567
 21
85.349861
 31
0.0
210
0.0
220
0.0
230
1.0
  0
LINE
  5
2E2
100
AcDbEntity
  8
0
 62
   172
 48
0.001337
100
AcDbLine
 10
140.343567
 20
85.349861
 30
0.0
 11
140.396378
 21
85.358353
 31
0.0
210
0.0
220
0.0
230
1.0
  0
LINE
  5
2E3
100
AcDbEntity
  8
0
 62
   172
 48
0.001321
100
AcDbLine
 10
140.396378
 20
85.358353
 30
0.0
 11
140.448776
 21
85.365036
 31
0.0
210
0.0
220
0.0
230
1.0
  0
LINE
  5
2E4
100
AcDbEntity
  8
0
 62
   172
 48
0.001306
100
AcDbLine
 10
140.448776
 20
85.365036
 30
0.0
 11
140.500793
 21
85.369911
 31
0.0
210
0.0
220
0.0
230
1.0
  0
LINE
  5
2E5
100
AcDbEntity
  8
0
 62
   172
 48
0.001293
100
AcDbLine
 10
140.500793
 20
85.369911
 30
0.0
 11
140.552429
 21
85.372971
 31
0.0
210
0.0
220
0.0
230
1.0
  0
LINE
  5
2E6
100
AcDbEntity
  8
0
 62
   172
 48
0.001282
100
AcDbLine
 10
140.552429
 20
85.372971
 30
0.0
 11
140.603683
 21
85.374222
 31
0.0
210
0.0
220
0.0
230
1.0
  0
LINE
  5
2E7
100
AcDbEntity
  8
0
 62
   172
 48
0.001272
100
AcDbLine
 10
140.603683
 20
85.374222
 30
0.0
 11
140.654541
 21
85.373665
 31
0.0
210
0.0
220
0.0
230
1.0
  0
LINE
  5
2E8
100
AcDbEntity
  8
0
 62
   172
 48
0.001263
100
AcDbLine
 10
140.654541
 20
85.373665
 30
0.0
 11
140.705017
 21
85.371284
 31
0.0
210
0.0
220
0.0
230
1.0
  0
LINE
  5
2E9
100
AcDbEntity
  8
0
 62
   172
 48
0.001256
100
AcDbLine
 10
140.705017
 20
85.371284
 30
0.0
 11
140.755081
 21
85.367104
 31
0.0
210
0.0
220
0.0
230
1.0
  0
LINE
  5
2EA
100
AcDbEntity
  8
0
 62
   172
 48
0.001251
100
AcDbLine
 10
140.755081
 20
85.367104
 30
0.0
 11
140.804779
 21
85.361107
 31
0.0
210
0.0
220
0.0
230
1.0
  0
LINE
  5
2EB
100
AcDbEntity
  8
0
 62
   172
 48
0.039756
100
AcDbLine
 10
140.804779
 20
85.361107
 30
0.0
 11
141.171677
 21
86.908432
 31
0.0
210
0.0
220
0.0
230
1.0
  0
LINE
  5
2EC
100
AcDbEntity
  8
0
 62
   172
 48
0.002347
100
AcDbLine
 10
141.171677
 20
86.908432
 30
0.0
 11
141.079758
 21
86.927467
 31
0.0
210
0.0
220
0.0
230
1.0
  0
LINE
  5
2ED
100
AcDbEntity
  8
0
 62
   172
 48
0.002287
100
AcDbLine
 10
141.079758
 20
86.927467
 30
0.0
 11
140.989563
 21
86.942833
 31
0.0
210
0.0
220
0.0
230
1.0
  0
LINE
  5
2EE
100
AcDbEntity
  8
0
 62
   172
 48
0.002231
100
AcDbLine
 10
140.989563
 20
86.942833
 30
0.0
 11
140.901108
 21
86.954521
 31
0.0
210
0.0
220
0.0
230
1.0
  0
LINE
  5
2EF
100
AcDbEntity
  8
0
 62
   172
 48
0.002178
100
AcDbLine
 10
140.901108
 20
86.954521
 30
0.0
 11
140.814362
 21
86.96254
 31
0.0
210
0.0
220
0.0
230
1.0
  0
LINE
  5
2F0
100
AcDbEntity
  8
0
 62
   172
 48
0.002127
100
AcDbLine
 10
140.814362
 20
86.96254
 30
0.0
 11
140.729385
 21
86.966888
 31
0.0
210
0.0
220
0.0
230
1.0
  0
LINE
  5
2F1
100
AcDbEntity
  8
0
 62
   172
 48
0.002082
100
AcDbLine
 10
140.729385
 20
86.966888
 30
0.0
 11
140.646103
 21
86.96756
 31
0.0
210
0.0
220
0.0
230
1.0
  0
LINE
  5
2F2
100
AcDbEntity
  8
0
 62
   172
 48
0.002039
100
AcDbLine
 10
140.646103
 20
86.96756
 30
0.0
 11
140.56459
 21
86.964561
 31
0.0
210
0.0
220
0.0
230
1.0
  0
LINE
  5
2F3
100
AcDbEntity
  8
0
 62
   172
 48
0.002002
100
AcDbLine
 10
140.56459
 20
86.964561
 30
0.0
 11
140.484787
 21
86.957893
 31
0.0
210
0.0
220
0.0
230
1.0
  0
LINE
  5
2F4
100
AcDbEntity
  8
0
 62
   172
 48
0.001969
100
AcDbLine
 10
140.484787
 20
86.957893
 30
0.0
 11
140.406708
 21
86.947548
 31
0.0
210
0.0
220
0.0
230
1.0
  0
LINE
  5
2F5
100
AcDbEntity
  8
0
 62
   172
 48
0.00194
100
AcDbLine
 10
140.406708
 20
86.947548
 30
0.0
 11
140.330383
 21
86.933533
 31
0.0
210
0.0
220
0.0
230
1.0
  0
LINE
  5
2F6
100
AcDbEntity
  8
0
 62
   172
 48
0.005335
100
AcDbLine
 10
140.330383
 20
86.933533
 30
0.0
 11
140.124924
 21
86.87587
 31
0.0
210
0.0
220
0.0
230
1.0
  0
LINE
  5
2F7
100
AcDbEntity
  8
0
 62
   172
 48
0.005354
100
AcDbLine
 10
140.124924
 20
86.87587
 30
0.0
 11
139.928268
 21
86.791031
 31
0.0
210
0.0
220
0.0
230
1.0
  0
LINE
  5
2F8
100
AcDbEntity
  8
0
 62
   172
 48
0.005468
100
AcDbLine
 10
139.928268
 20
86.791031
 30
0.0
 11
139.740387
 21
86.679024
 31
0.0
210
0.0
220
0.0
230
1.0
  0
LINE
  5
2F9
100
AcDbEntity
  8
0
 62
   172
 48
0.005671
100
AcDbLine
 10
139.740387
 20
86.679024
 30
0.0
 11
139.561279
 21
86.539833
 31
0.0
210
0.0
220
0.0
230
1.0
  0
LINE
  5
2FA
100
AcDbEntity
  8
0
 62
   172
 48
0.005952
100
AcDbLine
 10
139.561279
 20
86.539833
 30
0.0
 11
139.390961
 21
86.373466
 31
0.0
210
0.0
220
0.0
230
1.0
  0
LINE
  5
2FB
100
AcDbEntity
  8
0
 62
   172
 48
0.006303
100
AcDbLine
 10
139.390961
 20
86.373466
 30
0.0
 11
139.229416
 21
86.179924
 31
0.0
210
0.0
220
0.0
230
1.0
  0
LINE
  5
2FC
100
AcDbEntity
  8
0
 62
   172
 48
0.006711
100
AcDbLine
 10
139.229416
 20
86.179924
 30
0.0
 11
139.07666
 21
85.959206
 31
0.0
210
0.0
220
0.0
230
1.0
  0
LINE
  5
2FD
100
AcDbEntity
  8
0
 62
   172
 48
0.007167
100
AcDbLine
 10
139.07666
 20
85.959206
 30
0.0
 11
138.932693
 21
85.711311
 31
0.0
210
0.0
220
0.0
230
1.0
  0
LINE
  5
2FE
100
AcDbEntity
  8
0
 62
   172
 48
0.007663
100
AcDbLine
 10
138.932693
 20
85.711311
 30
0.0
 11
138.797501
 21
85.436234
 31
0.0
210
0.0
220
0.0
230
1.0
  0
LINE
  5
2FF
100
AcDbEntity
  8
0
 62
   172
 48
0.00819
100
AcDbLine
 10
138.797501
 20
85.436234
 30
0.0
 11
138.671112
 21
85.133987
 31
0.0
210
0.0
220
0.0
230
1.0
  0
LINE
  5
300
100
AcDbEntity
  8
0
 62
   172
 48
0.032185
100
AcDbLine
 10
138.671112
 20
85.133987
 30
0.0
 11
138.669785
 21
86.421394
 31
0.0
210
0.0
220
0.0
230
1.0
  0
LINE
  5
301
100
AcDbEntity
  8
0
 62
   172
 48
0.041144
100
AcDbLine
 10
138.669785
 20
86.421394
 30
0.0
 11
137.059158
 21
86.083115
 31
0.0
210
0.0
220
0.0
230
1.0
  0
LINE
  5
302
100
AcDbEntity
  8
0
 62
   172
 48
0.046317
100
AcDbLine
 10
97.773201
 20
83.809113
 30
0.0
 11
99.586311
 21
84.189926
 31
0.0
210
0.0
220
0.0
230
1.0
  0
LINE
  5
303
100
AcDbEntity
  8
0
 62
   172
 48
0.097754
100
AcDbLine
 10
99.586311
 20
84.189926
 30
0.0
 11
99.581863
 21
88.10009
 31
0.0
210
0.0
220
0.0
230
1.0
  0
LINE
  5
304
100
AcDbEntity
  8
0
 62
   172
 48
0.109091
100
AcDbLine
 10
99.581863
 20
88.10009
 30
0.0
 11
103.852325
 21
88.997025
 31
0.0
210
0.0
220
0.0
230
1.0
  0
LINE
  5
305
100
AcDbEntity
  8
0
 62
   172
 48
0.038409
100
AcDbLine
 10
103.852325
 20
88.997025
 30
0.0
 11
103.846756
 21
90.533386
 31
0.0
210
0.0
220
0.0
230
1.0
  0
LINE
  5
306
100
AcDbEntity
  8
0
 62
   172
 48
0.108856
100
AcDbLine
 10
103.846756
 20
90.533386
 30
0.0
 11
99.585503
 21
89.638382
 31
0.0
210
0.0
220
0.0
230
1.0
  0
LINE
  5
307
100
AcDbEntity
  8
0
 62
   172
 48
0.05524
100
AcDbLine
 10
99.585503
 20
89.638382
 30
0.0
 11
99.582672
 21
91.847992
 31
0.0
210
0.0
220
0.0
230
1.0
  0
LINE
  5
308
100
AcDbEntity
  8
0
 62
   172
 48
0.110972
100
AcDbLine
 10
99.582672
 20
91.847992
 30
0.0
 11
103.926765
 21
92.760391
 31
0.0
210
0.0
220
0.0
230
1.0
  0
LINE
  5
309
100
AcDbEntity
  8
0
 62
   172
 48
0.038458
100
AcDbLine
 10
103.926765
 20
92.760391
 30
0.0
 11
103.930397
 21
94.298691
 31
0.0
210
0.0
220
0.0
230
1.0
  0
LINE
  5
30A
100
AcDbEntity
  8
0
 62
   172
 48
0.157288
100
AcDbLine
 10
103.930397
 20
94.298691
 30
0.0
 11
97.773201
 21
93.005486
 31
0.0
210
0.0
220
0.0
230
1.0
  0
LINE
  5
30B
100
AcDbEntity
  8
0
 62
   172
 48
0.229909
100
AcDbLine
 10
97.773201
 20
93.005486
 30
0.0
 11
97.773201
 21
83.809113
 31
0.0
210
0.0
220
0.0
230
1.0
  0
LINE
  5
30C
100
AcDbEntity
  8
0
 62
   172
 48
0.25
100
AcDbLine
 10
150.789001
 20
51.607929
 30
0.0
 11
150.789001
 21
61.607929
 31
0.0
210
0.0
220
0.0
230
1.0
  0
LINE
  5
30D
100
AcDbEntity
  8
0
 62
   172
 48
0.075
100
AcDbLine
 10
150.789001
 20
51.607929
 30
0.0
 11
147.789001
 21
51.607929
 31
0.0
210
0.0
220
0.0
230
1.0
  0
LINE
  5
30E
100
AcDbEntity
  8
0
 62
   172
 48
0.25
100
AcDbLine
 10
147.789001
 20
51.607929
 30
0.0
 11
147.789001
 21
61.607929
 31
0.0
210
0.0
220
0.0
230
1.0
  0
LINE
  5
30F
100
AcDbEntity
  8
0
 62
   172
 48
0.075
100
AcDbLine
 10
147.789001
 20
51.607929
 30
0.0
 11
150.789001
 21
51.607929
 31
0.0
210
0.0
220
0.0
230
1.0
  0
LINE
  5
310
100
AcDbEntity
  8
0
 62
   172
 48
0.075
100
AcDbLine
 10
147.789001
 20
61.607929
 30
0.0
 11
150.789001
 21
61.607929
 31
0.0
210
0.0
220
0.0
230
1.0
  0
CIRCLE
  5
311
100
AcDbEntity
  8
0
 62
   172
100
AcDbCircle
 10
89.288994
 20
56.607922
 30
0.0
 40
3.500011
210
0.0
220
0.0
230
1.0
  0
ARC
  5
312
100
AcDbEntity
  8
0
 62
   172
100
AcDbCircle
 10
89.289001
 20
56.607929
 30
0.0
 40
6.50003
210
0.0
220
0.0
230
1.0
100
AcDbArc
 50
13.343124
 51
346.656925
  0
LINE
  5
313
100
AcDbEntity
  8
0
 62
   172
100
AcDbLine
 10
95.613571
 20
55.107929
 30
0.0
 11
147.789001
 21
55.107929
 31
0.0
210
0.0
220
0.0
230
1.0
  0
LINE
  5
314
100
AcDbEntity
  8
0
 62
   172
100
AcDbLine
 10
95.613571
 20
58.107929
 30
0.0
 11
147.789001
 21
58.107929
 31
0.0
210
0.0
220
0.0
230
1.0
  0
LINE
  5
315
100
AcDbEntity
  8
0
 62
     1
 48
0.012104
100
AcDbLine
 10
116.141357
 20
77.432678
 30
0.0
 11
116.329254
 21
76.986473
 31
0.0
210
0.0
220
0.0
230
1.0
  0
LINE
  5
316
100
AcDbEntity
  8
0
 62
     1
 48
0.011144
100
AcDbLine
 10
116.329254
 20
76.986473
 30
0.0
 11
116.547356
 21
76.597733
 31
0.0
210
0.0
220
0.0
230
1.0
  0
LINE
  5
317
100
AcDbEntity
  8
0
 62
     1
 48
0.01035
100
AcDbLine
 10
116.547356
 20
76.597733
 30
0.0
 11
116.79567
 21
76.266464
 31
0.0
210
0.0
220
0.0
230
1.0
  0
LINE
  5
318
100
AcDbEntity
  8
0
 62
     1
 48
0.009764
100
AcDbLine
 10
116.79567
 20
76.266464
 30
0.0
 11
117.074196
 21
75.992668
 31
0.0
210
0.0
220
0.0
230
1.0
  0
LINE
  5
319
100
AcDbEntity
  8
0
 62
     1
 48
0.009425
100
AcDbLine
 10
117.074196
 20
75.992668
 30
0.0
 11
117.382935
 21
75.776337
 31
0.0
210
0.0
220
0.0
230
1.0
  0
LINE
  5
31A
100
AcDbEntity
  8
0
 62
     1
 48
0.009358
100
AcDbLine
 10
117.382935
 20
75.776337
 30
0.0
 11
117.721886
 21
75.61747
 31
0.0
210
0.0
220
0.0
230
1.0
  0
LINE
  5
31B
100
AcDbEntity
  8
0
 62
     1
 48
0.009571
100
AcDbLine
 10
117.721886
 20
75.61747
 30
0.0
 11
118.091049
 21
75.516083
 31
0.0
210
0.0
220
0.0
230
1.0
  0
LINE
  5
31C
100
AcDbEntity
  8
0
 62
     1
 48
0.010045
100
AcDbLine
 10
118.091049
 20
75.516083
 30
0.0
 11
118.490425
 21
75.472153
 31
0.0
210
0.0
220
0.0
230
1.0
  0
LINE
  5
31D
100
AcDbEntity
  8
0
 62
     1
 48
0.010745
100
AcDbLine
 10
118.490425
 20
75.472153
 30
0.0
 11
118.920006
 21
75.485695
 31
0.0
210
0.0
220
0.0
230
1.0
  0
LINE
  5
31E
100
AcDbEntity
  8
0
 62
     1
 48
0.011631
100
AcDbLine
 10
118.920006
 20
75.485695
 30
0.0
 11
119.379807
 21
75.556702
 31
0.0
210
0.0
220
0.0
230
1.0
  0
LINE
  5
31F
100
AcDbEntity
  8
0
 62
     1
 48
0.007579
100
AcDbLine
 10
119.379807
 20
75.556702
 30
0.0
 11
119.674286
 21
75.628792
 31
0.0
210
0.0
220
0.0
230
1.0
  0
LINE
  5
320
100
AcDbEntity
  8
0
 62
     1
 48
0.007248
100
AcDbLine
 10
119.674286
 20
75.628792
 30
0.0
 11
119.950294
 21
75.717461
 31
0.0
210
0.0
220
0.0
230
1.0
  0
LINE
  5
321
100
AcDbEntity
  8
0
 62
     1
 48
0.006955
100
AcDbLine
 10
119.950294
 20
75.717461
 30
0.0
 11
120.207825
 21
75.822723
 31
0.0
210
0.0
220
0.0
230
1.0
  0
LINE
  5
322
100
AcDbEntity
  8
0
 62
     1
 48
0.006708
100
AcDbLine
 10
120.207825
 20
75.822723
 30
0.0
 11
120.446884
 21
75.944572
 31
0.0
210
0.0
220
0.0
230
1.0
  0
LINE
  5
323
100
AcDbEntity
  8
0
 62
     1
 48
0.006511
100
AcDbLine
 10
120.446884
 20
75.944572
 30
0.0
 11
120.667465
 21
76.083008
 31
0.0
210
0.0
220
0.0
230
1.0
  0
LINE
  5
324
100
AcDbEntity
  8
0
 62
     1
 48
0.006368
100
AcDbLine
 10
120.667465
 20
76.083008
 30
0.0
 11
120.869568
 21
76.238037
 31
0.0
210
0.0
220
0.0
230
1.0
  0
LINE
  5
325
100
AcDbEntity
  8
0
 62
     1
 48
0.006283
100
AcDbLine
 10
120.869568
 20
76.238037
 30
0.0
 11
121.0532
 21
76.409645
 31
0.0
210
0.0
220
0.0
230
1.0
  0
LINE
  5
326
100
AcDbEntity
  8
0
 62
     1
 48
0.00626
100
AcDbLine
 10
121.0532
 20
76.409645
 30
0.0
 11
121.218353
 21
76.597847
 31
0.0
210
0.0
220
0.0
230
1.0
  0
LINE
  5
327
100
AcDbEntity
  8
0
 62
     1
 48
0.006298
100
AcDbLine
 10
121.218353
 20
76.597847
 30
0.0
 11
121.365036
 21
76.802635
 31
0.0
210
0.0
220
0.0
230
1.0
  0
LINE
  5
328
100
AcDbEntity
  8
0
 62
     1
 48
0.006395
100
AcDbLine
 10
121.365036
 20
76.802635
 30
0.0
 11
121.49324
 21
77.02401
 31
0.0
210
0.0
220
0.0
230
1.0
  0
LINE
  5
329
100
AcDbEntity
  8
0
 62
     1
 48
0.006332
100
AcDbLine
 10
121.49324
 20
77.02401
 30
0.0
 11
121.604271
 21
77.251678
 31
0.0
210
0.0
220
0.0
230
1.0
  0
LINE
  5
32A
100
AcDbEntity
  8
0
 62
     1
 48
0.006077
100
AcDbLine
 10
121.604271
 20
77.251678
 30
0.0
 11
121.699425
 21
77.475342
 31
0.0
210
0.0
220
0.0
230
1.0
  0
LINE
  5
32B
100
AcDbEntity
  8
0
 62
     1
 48
0.005838
100
AcDbLine
 10
121.699425
 20
77.475342
 30
0.0
 11
121.778694
 21
77.694992
 31
0.0
210
0.0
220
0.0
230
1.0
  0
LINE
  5
32C
100
AcDbEntity
  8
0
 62
     1
 48
0.005619
100
AcDbLine
 10
121.778694
 20
77.694992
 30
0.0
 11
121.842079
 21
77.910629
 31
0.0
210
0.0
220
0.0
230
1.0
  0
LINE
  5
32D
100
AcDbEntity
  8
0
 62
     1
 48
0.005423
100
AcDbLine
 10
121.842079
 20
77.910629
 30
0.0
 11
121.889595
 21
78.122269
 31
0.0
210
0.0
220
0.0
230
1.0
  0
LINE
  5
32E
100
AcDbEntity
  8
0
 62
     1
 48
0.005251
100
AcDbLine
 10
121.889595
 20
78.122269
 30
0.0
 11
121.921234
 21
78.329903
 31
0.0
210
0.0
220
0.0
230
1.0
  0
LINE
  5
32F
100
AcDbEntity
  8
0
 62
     1
 48
0.005106
100
AcDbLine
 10
121.921234
 20
78.329903
 30
0.0
 11
121.936981
 21
78.533524
 31
0.0
210
0.0
220
0.0
230
1.0
  0
LINE
  5
330
100
AcDbEntity
  8
0
 62
     1
 48
0.00499
100
AcDbLine
 10
121.936981
 20
78.533524
 30
0.0
 11
121.936859
 21
78.733139
 31
0.0
210
0.0
220
0.0
230
1.0
  0
LINE
  5
331
100
AcDbEntity
  8
0
 62
     1
 48
0.004906
100
AcDbLine
 10
121.936859
 20
78.733139
 30
0.0
 11
121.920868
 21
78.928741
 31
0.0
210
0.0
220
0.0
230
1.0
  0
LINE
  5
332
100
AcDbEntity
  8
0
 62
     1
 48
0.004856
100
AcDbLine
 10
121.920868
 20
78.928741
 30
0.0
 11
121.888985
 21
79.120338
 31
0.0
210
0.0
220
0.0
230
1.0
  0
LINE
  5
333
100
AcDbEntity
  8
0
 62
     1
 48
0.005825
100
AcDbLine
 10
121.888985
 20
79.120338
 30
0.0
 11
121.830276
 21
79.34584
 31
0.0
210
0.0
220
0.0
230
1.0
  0
LINE
  5
334
100
AcDbEntity
  8
0
 62
     1
 48
0.005576
100
AcDbLine
 10
121.830276
 20
79.34584
 30
0.0
 11
121.752365
 21
79.554825
 31
0.0
210
0.0
220
0.0
230
1.0
  0
LINE
  5
335
100
AcDbEntity
  8
0
 62
     1
 48
0.005389
100
AcDbLine
 10
121.752365
 20
79.554825
 30
0.0
 11
121.655251
 21
79.747276
 31
0.0
210
0.0
220
0.0
230
1.0
  0
LINE
  5
336
100
AcDbEntity
  8
0
 62
     1
 48
0.005273
100
AcDbLine
 10
121.655251
 20
79.747276
 30
0.0
 11
121.538918
 21
79.923203
 31
0.0
210
0.0
220
0.0
230
1.0
  0
LINE
  5
337
100
AcDbEntity
  8
0
 62
     1
 48
0.005231
100
AcDbLine
 10
121.538918
 20
79.923203
 30
0.0
 11
121.403389
 21
80.082611
 31
0.0
210
0.0
220
0.0
230
1.0
  0
LINE
  5
338
100
AcDbEntity
  8
0
 62
     1
 48
0.005265
100
AcDbLine
 10
121.403389
 20
80.082611
 30
0.0
 11
121.24865
 21
80.225487
 31
0.0
210
0.0
220
0.0
230
1.0
  0
LINE
  5
339
100
AcDbEntity
  8
0
 62
     1
 48
0.005375
100
AcDbLine
 10
121.24865
 20
80.225487
 30
0.0
 11
121.074699
 21
80.35183
 31
0.0
210
0.0
220
0.0
230
1.0
  0
LINE
  5
33A
100
AcDbEntity
  8
0
 62
     1
 48
0.005555
100
AcDbLine
 10
121.074699
 20
80.35183
 30
0.0
 11
120.881546
 21
80.461655
 31
0.0
210
0.0
220
0.0
230
1.0
  0
LINE
  5
33B
100
AcDbEntity
  8
0
 62
     1
 48
0.005799
100
AcDbLine
 10
120.881546
 20
80.461655
 30
0.0
 11
120.669182
 21
80.554947
 31
0.0
210
0.0
220
0.0
230
1.0
  0
LINE
  5
33C
100
AcDbEntity
  8
0
 62
     1
 48
0.006099
100
AcDbLine
 10
120.669182
 20
80.554947
 30
0.0
 11
120.437614
 21
80.631714
 31
0.0
210
0.0
220
0.0
230
1.0
  0
LINE
  5
33D
100
AcDbEntity
  8
0
 62
     1
 48
0.007941
100
AcDbLine
 10
120.437614
 20
80.631714
 30
0.0
 11
120.699203
 21
80.811867
 31
0.0
210
0.0
220
0.0
230
1.0
  0
LINE
  5
33E
100
AcDbEntity
  8
0
 62
     1
 48
0.007454
100
AcDbLine
 10
120.699203
 20
80.811867
 30
0.0
 11
120.926636
 21
81.004646
 31
0.0
210
0.0
220
0.0
230
1.0
  0
LINE
  5
33F
100
AcDbEntity
  8
0
 62
     1
 48
0.00705
100
AcDbLine
 10
120.926636
 20
81.004646
 30
0.0
 11
121.119888
 21
81.210037
 31
0.0
210
0.0
220
0.0
230
1.0
  0
LINE
  5
340
100
AcDbEntity
  8
0
 62
     1
 48
0.006747
100
AcDbLine
 10
121.119888
 20
81.210037
 30
0.0
 11
121.278976
 21
81.428055
 31
0.0
210
0.0
220
0.0
230
1.0
  0
LINE
  5
341
100
AcDbEntity
  8
0
 62
     1
 48
0.006557
100
AcDbLine
 10
121.278976
 20
81.428055
 30
0.0
 11
121.403893
 21
81.658684
 31
0.0
210
0.0
220
0.0
230
1.0
  0
LINE
  5
342
100
AcDbEntity
  8
0
 62
     1
 48
0.006491
100
AcDbLine
 10
121.403893
 20
81.658684
 30
0.0
 11
121.494644
 21
81.901932
 31
0.0
210
0.0
220
0.0
230
1.0
  0
LINE
  5
343
100
AcDbEntity
  8
0
 62
     1
 48
0.006551
100
AcDbLine
 10
121.494644
 20
81.901932
 30
0.0
 11
121.551216
 21
82.157806
 31
0.0
210
0.0
220
0.0
230
1.0
  0
LINE
  5
344
100
AcDbEntity
  8
0
 62
     1
 48
0.006736
100
AcDbLine
 10
121.551216
 20
82.157806
 30
0.0
 11
121.573631
 21
82.4263
 31
0.0
210
0.0
220
0.0
230
1.0
  0
LINE
  5
345
100
AcDbEntity
  8
0
 62
     1
 48
0.007034
100
AcDbLine
 10
121.573631
 20
82.4263
 30
0.0
 11
121.561859
 21
82.707405
 31
0.0
210
0.0
220
0.0
230
1.0
  0
LINE
  5
346
100
AcDbEntity
  8
0
 62
     1
 48
0.007432
100
AcDbLine
 10
121.561859
 20
82.707405
 30
0.0
 11
121.51593
 21
83.001129
 31
0.0
210
0.0
220
0.0
230
1.0
  0
LINE
  5
347
100
AcDbEntity
  8
0
 62
     1
 48
0.005211
100
AcDbLine
 10
121.51593
 20
83.001129
 30
0.0
 11
121.466309
 21
83.20356
 31
0.0
210
0.0
220
0.0
230
1.0
  0
LINE
  5
348
100
AcDbEntity
  8
0
 62
     1
 48
0.005023
100
AcDbLine
 10
121.466309
 20
83.20356
 30
0.0
 11
121.404793
 21
83.394844
 31
0.0
210
0.0
220
0.0
230
1.0
  0
LINE
  5
349
100
AcDbEntity
  8
0
 62
     1
 48
0.004863
100
AcDbLine
 10
121.404793
 20
83.394844
 30
0.0
 11
121.331406
 21
83.574989
 31
0.0
210
0.0
220
0.0
230
1.0
  0
LINE
  5
34A
100
AcDbEntity
  8
0
 62
     1
 48
0.004732
100
AcDbLine
 10
121.331406
 20
83.574989
 30
0.0
 11
121.246132
 21
83.74398
 31
0.0
210
0.0
220
0.0
230
1.0
  0
LINE
  5
34B
100
AcDbEntity
  8
0
 62
     1
 48
0.004634
100
AcDbLine
 10
121.246132
 20
83.74398
 30
0.0
 11
121.148979
 21
83.901833
 31
0.0
210
0.0
220
0.0
230
1.0
  0
LINE
  5
34C
100
AcDbEntity
  8
0
 62
     1
 48
0.00457
100
AcDbLine
 10
121.148979
 20
83.901833
 30
0.0
 11
121.03994
 21
84.048546
 31
0.0
210
0.0
220
0.0
230
1.0
  0
LINE
  5
34D
100
AcDbEntity
  8
0
 62
     1
 48
0.004541
100
AcDbLine
 10
121.03994
 20
84.048546
 30
0.0
 11
120.919029
 21
84.184113
 31
0.0
210
0.0
220
0.0
230
1.0
  0
LINE
  5
34E
100
AcDbEntity
  8
0
 62
     1
 48
0.004549
100
AcDbLine
 10
120.919029
 20
84.184113
 30
0.0
 11
120.786224
 21
84.308525
 31
0.0
210
0.0
220
0.0
230
1.0
  0
LINE
  5
34F
100
AcDbEntity
  8
0
 62
     1
 48
0.004594
100
AcDbLine
 10
120.786224
 20
84.308525
 30
0.0
 11
120.641548
 21
84.421799
 31
0.0
210
0.0
220
0.0
230
1.0
  0
LINE
  5
350
100
AcDbEntity
  8
0
 62
     1
 48
0.004673
100
AcDbLine
 10
120.641548
 20
84.421799
 30
0.0
 11
120.484993
 21
84.523933
 31
0.0
210
0.0
220
0.0
230
1.0
  0
LINE
  5
351
100
AcDbEntity
  8
0
 62
     1
 48
0.004703
100
AcDbLine
 10
120.484993
 20
84.523933
 30
0.0
 11
120.319473
 21
84.613327
 31
0.0
210
0.0
220
0.0
230
1.0
  0
LINE
  5
352
100
AcDbEntity
  8
0
 62
     1
 48
0.004681
100
AcDbLine
 10
120.319473
 20
84.613327
 30
0.0
 11
120.147942
 21
84.688385
 31
0.0
210
0.0
220
0.0
230
1.0
  0
LINE
  5
353
100
AcDbEntity
  8
0
 62
     1
 48
0.004691
100
AcDbLine
 10
120.147942
 20
84.688385
 30
0.0
 11
119.970383
 21
84.749107
 31
0.0
210
0.0
220
0.0
230
1.0
  0
LINE
  5
354
100
AcDbEntity
  8
0
 62
     1
 48
0.004734
100
AcDbLine
 10
119.970383
 20
84.749107
 30
0.0
 11
119.786797
 21
84.795502
 31
0.0
210
0.0
220
0.0
230
1.0
  0
LINE
  5
355
100
AcDbEntity
  8
0
 62
     1
 48
0.004807
100
AcDbLine
 10
119.786797
 20
84.795502
 30
0.0
 11
119.597198
 21
84.82756
 31
0.0
210
0.0
220
0.0
230
1.0
  0
LINE
  5
356
100
AcDbEntity
  8
0
 62
     1
 48
0.004911
100
AcDbLine
 10
119.597198
 20
84.82756
 30
0.0
 11
119.401573
 21
84.845276
 31
0.0
210
0.0
220
0.0
230
1.0
  0
LINE
  5
357
100
AcDbEntity
  8
0
 62
     1
 48
0.005042
100
AcDbLine
 10
119.401573
 20
84.845276
 30
0.0
 11
119.199921
 21
84.848671
 31
0.0
210
0.0
220
0.0
230
1.0
  0
LINE
  5
358
100
AcDbEntity
  8
0
 62
     1
 48
0.005199
100
AcDbLine
 10
119.199921
 20
84.848671
 30
0.0
 11
118.992256
 21
84.83773
 31
0.0
210
0.0
220
0.0
230
1.0
  0
LINE
  5
359
100
AcDbEntity
  8
0
 62
     1
 48
0.00538
100
AcDbLine
 10
118.992256
 20
84.83773
 30
0.0
 11
118.778557
 21
84.812447
 31
0.0
210
0.0
220
0.0
230
1.0
  0
LINE
  5
35A
100
AcDbEntity
  8
0
 62
     1
 48
0.005581
100
AcDbLine
 10
118.778557
 20
84.812447
 30
0.0
 11
118.558846
 21
84.772835
 31
0.0
210
0.0
220
0.0
230
1.0
  0
LINE
  5
35B
100
AcDbEntity
  8
0
 62
     1
 48
0.010516
100
AcDbLine
 10
118.558846
 20
84.772835
 30
0.0
 11
118.15258
 21
84.663773
 31
0.0
210
0.0
220
0.0
230
1.0
  0
LINE
  5
35C
100
AcDbEntity
  8
0
 62
     1
 48
0.00993
100
AcDbLine
 10
118.15258
 20
84.663773
 30
0.0
 11
117.784225
 21
84.515198
 31
0.0
210
0.0
220
0.0
230
1.0
  0
LINE
  5
35D
100
AcDbEntity
  8
0
 62
     1
 48
0.009506
100
AcDbLine
 10
117.784225
 20
84.515198
 30
0.0
 11
117.453766
 21
84.327118
 31
0.0
210
0.0
220
0.0
230
1.0
  0
LINE
  5
35E
100
AcDbEntity
  8
0
 62
     1
 48
0.009267
100
AcDbLine
 10
117.453766
 20
84.327118
 30
0.0
 11
117.161194
 21
84.09951
 31
0.0
210
0.0
220
0.0
230
1.0
  0
LINE
  5
35F
100
AcDbEntity
  8
0
 62
     1
 48
0.009227
100
AcDbLine
 10
117.161194
 20
84.09951
 30
0.0
 11
116.906517
 21
83.832397
 31
0.0
210
0.0
220
0.0
230
1.0
  0
LINE
  5
360
100
AcDbEntity
  8
0
 62
     1
 48
0.009388
100
AcDbLine
 10
116.906517
 20
83.832397
 30
0.0
 11
116.689743
 21
83.52578
 31
0.0
210
0.0
220
0.0
230
1.0
  0
LINE
  5
361
100
AcDbEntity
  8
0
 62
     1
 48
0.009741
100
AcDbLine
 10
116.689743
 20
83.52578
 30
0.0
 11
116.510864
 21
83.179649
 31
0.0
210
0.0
220
0.0
230
1.0
  0
LINE
  5
362
100
AcDbEntity
  8
0
 62
     1
 48
0.010265
100
AcDbLine
 10
116.510864
 20
83.179649
 30
0.0
 11
116.369881
 21
82.794006
 31
0.0
210
0.0
220
0.0
230
1.0
  0
LINE
  5
363
100
AcDbEntity
  8
0
 62
     1
 48
0.010937
100
AcDbLine
 10
116.369881
 20
82.794006
 30
0.0
 11
116.266792
 21
82.368843
 31
0.0
210
0.0
220
0.0
230
1.0
  0
LINE
  5
364
100
AcDbEntity
  8
0
 62
     1
 48
0.01173
100
AcDbLine
 10
116.266792
 20
82.368843
 30
0.0
 11
116.201607
 21
81.904175
 31
0.0
210
0.0
220
0.0
230
1.0
  0
LINE
  5
365
100
AcDbEntity
  8
0
 62
     1
 48
0.040991
100
AcDbLine
 10
116.201607
 20
81.904175
 30
0.0
 11
117.841133
 21
81.921799
 31
0.0
210
0.0
220
0.0
230
1.0
  0
LINE
  5
366
100
AcDbEntity
  8
0
 62
     1
 48
0.006114
100
AcDbLine
 10
117.841133
 20
81.921799
 30
0.0
 11
117.862411
 21
82.165451
 31
0.0
210
0.0
220
0.0
230
1.0
  0
LINE
  5
367
100
AcDbEntity
  8
0
 62
     1
 48
0.005614
100
AcDbLine
 10
117.862411
 20
82.165451
 30
0.0
 11
117.898705
 21
82.387077
 31
0.0
210
0.0
220
0.0
230
1.0
  0
LINE
  5
368
100
AcDbEntity
  8
0
 62
     1
 48
0.005152
100
AcDbLine
 10
117.898705
 20
82.387077
 30
0.0
 11
117.949997
 21
82.586685
 31
0.0
210
0.0
220
0.0
230
1.0
  0
LINE
  5
369
100
AcDbEntity
  8
0
 62
     1
 48
0.004739
100
AcDbLine
 10
117.949997
 20
82.586685
 30
0.0
 11
118.016289
 21
82.764259
 31
0.0
210
0.0
220
0.0
230
1.0
  0
LINE
  5
36A
100
AcDbEntity
  8
0
 62
     1
 48
0.004388
100
AcDbLine
 10
118.016289
 20
82.764259
 30
0.0
 11
118.097588
 21
82.919807
 31
0.0
210
0.0
220
0.0
230
1.0
  0
LINE
  5
36B
100
AcDbEntity
  8
0
 62
     1
 48
0.004116
100
AcDbLine
 10
118.097588
 20
82.919807
 30
0.0
 11
118.193886
 21
83.053329
 31
0.0
210
0.0
220
0.0
230
1.0
  0
LINE
  5
36C
100
AcDbEntity
  8
0
 62
     1
 48
0.003939
100
AcDbLine
 10
118.193886
 20
83.053329
 30
0.0
 11
118.305199
 21
83.164825
 31
0.0
210
0.0
220
0.0
230
1.0
  0
LINE
  5
36D
100
AcDbEntity
  8
0
 62
     1
 48
0.00387
100
AcDbLine
 10
118.305199
 20
83.164825
 30
0.0
 11
118.431511
 21
83.254303
 31
0.0
210
0.0
220
0.0
230
1.0
  0
LINE
  5
36E
100
AcDbEntity
  8
0
 62
     1
 48
0.003915
100
AcDbLine
 10
118.431511
 20
83.254303
 30
0.0
 11
118.57283
 21
83.321747
 31
0.0
210
0.0
220
0.0
230
1.0
  0
LINE
  5
36F
100
AcDbEntity
  8
0
 62
     1
 48
0.00407
100
AcDbLine
 10
118.57283
 20
83.321747
 30
0.0
 11
118.729149
 21
83.367172
 31
0.0
210
0.0
220
0.0
230
1.0
  0
LINE
  5
370
100
AcDbEntity
  8
0
 62
     1
 48
0.004295
100
AcDbLine
 10
118.729149
 20
83.367172
 30
0.0
 11
118.898964
 21
83.393219
 31
0.0
210
0.0
220
0.0
230
1.0
  0
LINE
  5
371
100
AcDbEntity
  8
0
 62
     1
 48
0.003901
100
AcDbLine
 10
118.898964
 20
83.393219
 30
0.0
 11
119.054962
 21
83.397156
 31
0.0
210
0.0
220
0.0
230
1.0
  0
LINE
  5
372
100
AcDbEntity
  8
0
 62
     1
 48
0.003584
100
AcDbLine
 10
119.054962
 20
83.397156
 30
0.0
 11
119.197159
 21
83.378983
 31
0.0
210
0.0
220
0.0
230
1.0
  0
LINE
  5
373
100
AcDbEntity
  8
0
 62
     1
 48
0.003364
100
AcDbLine
 10
119.197159
 20
83.378983
 30
0.0
 11
119.325546
 21
83.338676
 31
0.0
210
0.0
220
0.0
230
1.0
  0
LINE
  5
374
100
AcDbEntity
  8
0
 62
     1
 48
0.003262
100
AcDbLine
 10
119.325546
 20
83.338676
 30
0.0
 11
119.440132
 21
83.27626
 31
0.0
210
0.0
220
0.0
230
1.0
  0
LINE
  5
375
100
AcDbEntity
  8
0
 62
     1
 48
0.003289
100
AcDbLine
 10
119.440132
 20
83.27626
 30
0.0
 11
119.540916
 21
83.191719
 31
0.0
210
0.0
220
0.0
230
1.0
  0
LINE
  5
376
100
AcDbEntity
  8
0
 62
     1
 48
0.003441
100
AcDbLine
 10
119.540916
 20
83.191719
 30
0.0
 11
119.627899
 21
83.085068
 31
0.0
210
0.0
220
0.0
230
1.0
  0
LINE
  5
377
100
AcDbEntity
  8
0
 62
     1
 48
0.003703
100
AcDbLine
 10
119.627899
 20
83.085068
 30
0.0
 11
119.701065
 21
82.956284
 31
0.0
210
0.0
220
0.0
230
1.0
  0
LINE
  5
378
100
AcDbEntity
  8
0
 62
     1
 48
0.004054
100
AcDbLine
 10
119.701065
 20
82.956284
 30
0.0
 11
119.760437
 21
82.805397
 31
0.0
210
0.0
220
0.0
230
1.0
  0
LINE
  5
379
100
AcDbEntity
  8
0
 62
     1
 48
0.004473
100
AcDbLine
 10
119.760437
 20
82.805397
 30
0.0
 11
119.806
 21
82.632385
 31
0.0
210
0.0
220
0.0
230
1.0
  0
LINE
  5
37A
100
AcDbEntity
  8
0
 62
     1
 48
0.006267
100
AcDbLine
 10
119.806
 20
82.632385
 30
0.0
 11
119.841492
 21
82.384224
 31
0.0
210
0.0
220
0.0
230
1.0
  0
LINE
  5
37B
100
AcDbEntity
  8
0
 62
     1
 48
0.005727
100
AcDbLine
 10
119.841492
 20
82.384224
 30
0.0
 11
119.839737
 21
82.155144
 31
0.0
210
0.0
220
0.0
230
1.0
  0
LINE
  5
37C
100
AcDbEntity
  8
0
 62
     1
 48
0.00534
100
AcDbLine
 10
119.839737
 20
82.155144
 30
0.0
 11
119.80072
 21
81.945145
 31
0.0
210
0.0
220
0.0
230
1.0
  0
LINE
  5
37D
100
AcDbEntity
  8
0
 62
     1
 48
0.00514
100
AcDbLine
 10
119.80072
 20
81.945145
 30
0.0
 11
119.724449
 21
81.754234
 31
0.0
210
0.0
220
0.0
230
1.0
  0
LINE
  5
37E
100
AcDbEntity
  8
0
 62
     1
 48
0.005149
100
AcDbLine
 10
119.724449
 20
81.754234
 30
0.0
 11
119.610916
 21
81.582405
 31
0.0
210
0.0
220
0.0
230
1.0
  0
LINE
  5
37F
100
AcDbEntity
  8
0
 62
     1
 48
0.005366
100
AcDbLine
 10
119.610916
 20
81.582405
 30
0.0
 11
119.460129
 21
81.429649
 31
0.0
210
0.0
220
0.0
230
1.0
  0
LINE
  5
380
100
AcDbEntity
  8
0
 62
     1
 48
0.005768
100
AcDbLine
 10
119.460129
 20
81.429649
 30
0.0
 11
119.272087
 21
81.295982
 31
0.0
210
0.0
220
0.0
230
1.0
  0
LINE
  5
381
100
AcDbEntity
  8
0
 62
     1
 48
0.006319
100
AcDbLine
 10
119.272087
 20
81.295982
 30
0.0
 11
119.046776
 21
81.181396
 31
0.0
210
0.0
220
0.0
230
1.0
  0
LINE
  5
382
100
AcDbEntity
  8
0
 62
     1
 48
0.006985
100
AcDbLine
 10
119.046776
 20
81.181396
 30
0.0
 11
118.784218
 21
81.085892
 31
0.0
210
0.0
220
0.0
230
1.0
  0
LINE
  5
383
100
AcDbEntity
  8
0
 62
     1
 48
0.007735
100
AcDbLine
 10
118.784218
 20
81.085892
 30
0.0
 11
118.484406
 21
81.00946
 31
0.0
210
0.0
220
0.0
230
1.0
  0
LINE
  5
384
100
AcDbEntity
  8
0
 62
     1
 48
0.037441
100
AcDbLine
 10
118.484406
 20
81.00946
 30
0.0
 11
118.491447
 21
79.511848
 31
0.0
210
0.0
220
0.0
230
1.0
  0
LINE
  5
385
100
AcDbEntity
  8
0
 62
     1
 48
0.00401
100
AcDbLine
 10
118.491447
 20
79.511848
 30
0.0
 11
118.648933
 21
79.542328
 31
0.0
210
0.0
220
0.0
230
1.0
  0
LINE
  5
386
100
AcDbEntity
  8
0
 62
     1
 48
0.003758
100
AcDbLine
 10
118.648933
 20
79.542328
 30
0.0
 11
118.797432
 21
79.565735
 31
0.0
210
0.0
220
0.0
230
1.0
  0
LINE
  5
387
100
AcDbEntity
  8
0
 62
     1
 48
0.003512
100
AcDbLine
 10
118.797432
 20
79.565735
 30
0.0
 11
118.936951
 21
79.582062
 31
0.0
210
0.0
220
0.0
230
1.0
  0
LINE
  5
388
100
AcDbEntity
  8
0
 62
     1
 48
0.003271
100
AcDbLine
 10
118.936951
 20
79.582062
 30
0.0
 11
119.067474
 21
79.591324
 31
0.0
210
0.0
220
0.0
230
1.0
  0
LINE
  5
389
100
AcDbEntity
  8
0
 62
     1
 48
0.003039
100
AcDbLine
 10
119.067474
 20
79.591324
 30
0.0
 11
119.189011
 21
79.593491
 31
0.0
210
0.0
220
0.0
230
1.0
  0
LINE
  5
38A
100
AcDbEntity
  8
0
 62
     1
 48
0.002817
100
AcDbLine
 10
119.189011
 20
79.593491
 30
0.0
 11
119.301567
 21
79.588593
 31
0.0
210
0.0
220
0.0
230
1.0
  0
LINE
  5
38B
100
AcDbEntity
  8
0
 62
     1
 48
0.002606
100
AcDbLine
 10
119.301567
 20
79.588593
 30
0.0
 11
119.405121
 21
79.576614
 31
0.0
210
0.0
220
0.0
230
1.0
  0
LINE
  5
38C
100
AcDbEntity
  8
0
 62
     1
 48
0.002412
100
AcDbLine
 10
119.405121
 20
79.576614
 30
0.0
 11
119.499687
 21
79.557556
 31
0.0
210
0.0
220
0.0
230
1.0
  0
LINE
  5
38D
100
AcDbEntity
  8
0
 62
     1
 48
0.002237
100
AcDbLine
 10
119.499687
 20
79.557556
 30
0.0
 11
119.585281
 21
79.531425
 31
0.0
210
0.0
220
0.0
230
1.0
  0
LINE
  5
38E
100
AcDbEntity
  8
0
 62
     1
 48
0.002087
100
AcDbLine
 10
119.585281
 20
79.531425
 30
0.0
 11
119.661873
 21
79.498215
 31
0.0
210
0.0
220
0.0
230
1.0
  0
LINE
  5
38F
100
AcDbEntity
  8
0
 62
     1
 48
0.002031
100
AcDbLine
 10
119.661873
 20
79.498215
 30
0.0
 11
119.731743
 21
79.456772
 31
0.0
210
0.0
220
0.0
230
1.0
  0
LINE
  5
390
100
AcDbEntity
  8
0
 62
     1
 48
0.002071
100
AcDbLine
 10
119.731743
 20
79.456772
 30
0.0
 11
119.79715
 21
79.40593
 31
0.0
210
0.0
220
0.0
230
1.0
  0
LINE
  5
391
100
AcDbEntity
  8
0
 62
     1
 48
0.002142
100
AcDbLine
 10
119.79715
 20
79.40593
 30
0.0
 11
119.858086
 21
79.345695
 31
0.0
210
0.0
220
0.0
230
1.0
  0
LINE
  5
392
100
AcDbEntity
  8
0
 62
     1
 48
0.002241
100
AcDbLine
 10
119.858086
 20
79.345695
 30
0.0
 11
119.914558
 21
79.27607
 31
0.0
210
0.0
220
0.0
230
1.0
  0
LINE
  5
393
100
AcDbEntity
  8
0
 62
     1
 48
0.002365
100
AcDbLine
 10
119.914558
 20
79.27607
 30
0.0
 11
119.966568
 21
79.197052
 31
0.0
210
0.0
220
0.0
230
1.0
  0
LINE
  5
394
100
AcDbEntity
  8
0
 62
     1
 48
0.00251
100
AcDbLine
 10
119.966568
 20
79.197052
 30
0.0
 11
120.014107
 21
79.108635
 31
0.0
210
0.0
220
0.0
230
1.0
  0
LINE
  5
395
100
AcDbEntity
  8
0
 62
     1
 48
0.002672
100
AcDbLine
 10
120.014107
 20
79.108635
 30
0.0
 11
120.05719
 21
79.010818
 31
0.0
210
0.0
220
0.0
230
1.0
  0
LINE
  5
396
100
AcDbEntity
  8
0
 62
     1
 48
0.002849
100
AcDbLine
 10
120.05719
 20
79.010818
 30
0.0
 11
120.095802
 21
78.903618
 31
0.0
210
0.0
220
0.0
230
1.0
  0
LINE
  5
397
100
AcDbEntity
  8
0
 62
     1
 48
0.003037
100
AcDbLine
 10
120.095802
 20
78.903618
 30
0.0
 11
120.129951
 21
78.787018
 31
0.0
210
0.0
220
0.0
230
1.0
  0
LINE
  5
398
100
AcDbEntity
  8
0
 62
     1
 48
0.003236
100
AcDbLine
 10
120.129951
 20
78.787018
 30
0.0
 11
120.15963
 21
78.661026
 31
0.0
210
0.0
220
0.0
230
1.0
  0
LINE
  5
399
100
AcDbEntity
  8
0
 62
     1
 48
0.002749
100
AcDbLine
 10
120.15963
 20
78.661026
 30
0.0
 11
120.178772
 21
78.55275
 31
0.0
210
0.0
220
0.0
230
1.0
  0
LINE
  5
39A
100
AcDbEntity
  8
0
 62
     1
 48
0.002706
100
AcDbLine
 10
120.178772
 20
78.55275
 30
0.0
 11
120.190552
 21
78.445152
 31
0.0
210
0.0
220
0.0
230
1.0
  0
LINE
  5
39B
100
AcDbEntity
  8
0
 62
     1
 48
0.002676
100
AcDbLine
 10
120.190552
 20
78.445152
 30
0.0
 11
120.195
 21
78.338219
 31
0.0
210
0.0
220
0.0
230
1.0
  0
LINE
  5
39C
100
AcDbEntity
  8
0
 62
     1
 48
0.002658
100
AcDbLine
 10
120.195
 20
78.338219
 30
0.0
 11
120.192093
 21
78.231949
 31
0.0
210
0.0
220
0.0
230
1.0
  0
LINE
  5
39D
100
AcDbEntity
  8
0
 62
     1
 48
0.002652
100
AcDbLine
 10
120.192093
 20
78.231949
 30
0.0
 11
120.181839
 21
78.12635
 31
0.0
210
0.0
220
0.0
230
1.0
  0
LINE
  5
39E
100
AcDbEntity
  8
0
 62
     1
 48
0.00266
100
AcDbLine
 10
120.181839
 20
78.12635
 30
0.0
 11
120.164238
 21
78.021416
 31
0.0
210
0.0
220
0.0
230
1.0
  0
LINE
  5
39F
100
AcDbEntity
  8
0
 62
     1
 48
0.00268
100
AcDbLine
 10
120.164238
 20
78.021416
 30
0.0
 11
120.13929
 21
77.917152
 31
0.0
210
0.0
220
0.0
230
1.0
  0
LINE
  5
3A0
100
AcDbEntity
  8
0
 62
     1
 48
0.002713
100
AcDbLine
 10
120.13929
 20
77.917152
 30
0.0
 11
120.107002
 21
77.813553
 31
0.0
210
0.0
220
0.0
230
1.0
  0
LINE
  5
3A1
100
AcDbEntity
  8
0
 62
     1
 48
0.002758
100
AcDbLine
 10
120.107002
 20
77.813553
 30
0.0
 11
120.067352
 21
77.710617
 31
0.0
210
0.0
220
0.0
230
1.0
  0
LINE
  5
3A2
100
AcDbEntity
  8
0
 62
     1
 48
0.002814
100
AcDbLine
 10
120.067352
 20
77.710617
 30
0.0
 11
120.02037
 21
77.608353
 31
0.0
210
0.0
220
0.0
230
1.0
  0
LINE
  5
3A3
100
AcDbEntity
  8
0
 62
     1
 48
0.002813
100
AcDbLine
 10
120.02037
 20
77.608353
 30
0.0
 11
119.965515
 21
77.510109
 31
0.0
210
0.0
220
0.0
230
1.0
  0
LINE
  5
3A4
100
AcDbEntity
  8
0
 62
     1
 48
0.002767
100
AcDbLine
 10
119.965515
 20
77.510109
 30
0.0
 11
119.902298
 21
77.419235
 31
0.0
210
0.0
220
0.0
230
1.0
  0
LINE
  5
3A5
100
AcDbEntity
  8
0
 62
     1
 48
0.00275
100
AcDbLine
 10
119.902298
 20
77.419235
 30
0.0
 11
119.830711
 21
77.335724
 31
0.0
210
0.0
220
0.0
230
1.0
  0
LINE
  5
3A6
100
AcDbEntity
  8
0
 62
     1
 48
0.00276
100
AcDbLine
 10
119.830711
 20
77.335724
 30
0.0
 11
119.750748
 21
77.259598
 31
0.0
210
0.0
220
0.0
230
1.0
  0
LINE
  5
3A7
100
AcDbEntity
  8
0
 62
     1
 48
0.002799
100
AcDbLine
 10
119.750748
 20
77.259598
 30
0.0
 11
119.662407
 21
77.190826
 31
0.0
210
0.0
220
0.0
230
1.0
  0
LINE
  5
3A8
100
AcDbEntity
  8
0
 62
     1
 48
0.002863
100
AcDbLine
 10
119.662407
 20
77.190826
 30
0.0
 11
119.565712
 21
77.12944
 31
0.0
210
0.0
220
0.0
230
1.0
  0
LINE
  5
3A9
100
AcDbEntity
  8
0
 62
     1
 48
0.002954
100
AcDbLine
 10
119.565712
 20
77.12944
 30
0.0
 11
119.460632
 21
77.075417
 31
0.0
210
0.0
220
0.0
230
1.0
  0
LINE
  5
3AA
100
AcDbEntity
  8
0
 62
     1
 48
0.003066
100
AcDbLine
 10
119.460632
 20
77.075417
 30
0.0
 11
119.347191
 21
77.02877
 31
0.0
210
0.0
220
0.0
230
1.0
  0
LINE
  5
3AB
100
AcDbEntity
  8
0
 62
     1
 48
0.0032
100
AcDbLine
 10
119.347191
 20
77.02877
 30
0.0
 11
119.22538
 21
76.989487
 31
0.0
210
0.0
220
0.0
230
1.0
  0
LINE
  5
3AC
100
AcDbEntity
  8
0
 62
     1
 48
0.003351
100
AcDbLine
 10
119.22538
 20
76.989487
 30
0.0
 11
119.095192
 21
76.957581
 31
0.0
210
0.0
220
0.0
230
1.0
  0
LINE
  5
3AD
100
AcDbEntity
  8
0
 62
     1
 48
0.004436
100
AcDbLine
 10
119.095192
 20
76.957581
 30
0.0
 11
118.91935
 21
76.933716
 31
0.0
210
0.0
220
0.0
230
1.0
  0
LINE
  5
3AE
100
AcDbEntity
  8
0
 62
     1
 48
0.00417
100
AcDbLine
 10
118.91935
 20
76.933716
 30
0.0
 11
118.752609
 21
76.937904
 31
0.0
210
0.0
220
0.0
230
1.0
  0
LINE
  5
3AF
100
AcDbEntity
  8
0
 62
     1
 48
0.004023
100
AcDbLine
 10
118.752609
 20
76.937904
 30
0.0
 11
118.594971
 21
76.970139
 31
0.0
210
0.0
220
0.0
230
1.0
  0
LINE
  5
3B0
100
AcDbEntity
  8
0
 62
     1
 48
0.004008
100
AcDbLine
 10
118.594971
 20
76.970139
 30
0.0
 11
118.446426
 21
77.030426
 31
0.0
210
0.0
220
0.0
230
1.0
  0
LINE
  5
3B1
100
AcDbEntity
  8
0
 62
     1
 48
0.004127
100
AcDbLine
 10
118.446426
 20
77.030426
 30
0.0
 11
118.306992
 21
77.118759
 31
0.0
210
0.0
220
0.0
230
1.0
  0
LINE
  5
3B2
100
AcDbEntity
  8
0
 62
     1
 48
0.004369
100
AcDbLine
 10
118.306992
 20
77.118759
 30
0.0
 11
118.176643
 21
77.235146
 31
0.0
210
0.0
220
0.0
230
1.0
  0
LINE
  5
3B3
100
AcDbEntity
  8
0
 62
     1
 48
0.004714
100
AcDbLine
 10
118.176643
 20
77.235146
 30
0.0
 11
118.055405
 21
77.379578
 31
0.0
210
0.0
220
0.0
230
1.0
  0
LINE
  5
3B4
100
AcDbEntity
  8
0
 62
     1
 48
0.005143
100
AcDbLine
 10
118.055405
 20
77.379578
 30
0.0
 11
117.94326
 21
77.552055
 31
0.0
210
0.0
220
0.0
230
1.0
  0
LINE
  5
3B5
100
AcDbEntity
  8
0
 62
     1
 48
0.005636
100
AcDbLine
 10
117.94326
 20
77.552055
 30
0.0
 11
117.840218
 21
77.752586
 31
0.0
210
0.0
220
0.0
230
1.0
  0
LINE
  5
3B6
100
AcDbEntity
  8
0
 62
     1
 48
0.006178
100
AcDbLine
 10
117.840218
 20
77.752586
 30
0.0
 11
117.746277
 21
77.981171
 31
0.0
210
0.0
220
0.0
230
1.0
  0
LINE
  5
3B7
100
AcDbEntity
  8
0
 62
     1
 48
0.042401
100
AcDbLine
 10
117.746277
 20
77.981171
 30
0.0
 11
116.141357
 21
77.432678
 31
0.0
210
0.0
220
0.0
230
1.0
  0
LINE
  5
3B8
100
AcDbEntity
  8
0
 62
     1
 48
0.087704
100
AcDbLine
 10
125.156342
 20
76.923714
 30
0.0
 11
125.159454
 21
80.431862
 31
0.0
210
0.0
220
0.0
230
1.0
  0
LINE
  5
3B9
100
AcDbEntity
  8
0
 62
     1
 48
0.029624
100
AcDbLine
 10
125.159454
 20
80.431862
 30
0.0
 11
126.319107
 21
80.675423
 31
0.0
210
0.0
220
0.0
230
1.0
  0
LINE
  5
3BA
100
AcDbEntity
  8
0
 62
     1
 48
0.008203
100
AcDbLine
 10
126.319107
 20
80.675423
 30
0.0
 11
126.639679
 21
80.745445
 31
0.0
210
0.0
220
0.0
230
1.0
  0
LINE
  5
3BB
100
AcDbEntity
  8
0
 62
     1
 48
0.007777
100
AcDbLine
 10
126.639679
 20
80.745445
 30
0.0
 11
126.942413
 21
80.817101
 31
0.0
210
0.0
220
0.0
230
1.0
  0
LINE
  5
3BC
100
AcDbEntity
  8
0
 62
     1
 48
0.007355
100
AcDbLine
 10
126.942413
 20
80.817101
 30
0.0
 11
127.227318
 21
80.890396
 31
0.0
210
0.0
220
0.0
230
1.0
  0
LINE
  5
3BD
100
AcDbEntity
  8
0
 62
     1
 48
0.006935
100
AcDbLine
 10
127.227318
 20
80.890396
 30
0.0
 11
127.494392
 21
80.965324
 31
0.0
210
0.0
220
0.0
230
1.0
  0
LINE
  5
3BE
100
AcDbEntity
  8
0
 62
     1
 48
0.006518
100
AcDbLine
 10
127.494392
 20
80.965324
 30
0.0
 11
127.743637
 21
81.041885
 31
0.0
210
0.0
220
0.0
230
1.0
  0
LINE
  5
3BF
100
AcDbEntity
  8
0
 62
     1
 48
0.006107
100
AcDbLine
 10
127.743637
 20
81.041885
 30
0.0
 11
127.975044
 21
81.120087
 31
0.0
210
0.0
220
0.0
230
1.0
  0
LINE
  5
3C0
100
AcDbEntity
  8
0
 62
     1
 48
0.0057
100
AcDbLine
 10
127.975044
 20
81.120087
 30
0.0
 11
128.188614
 21
81.199921
 31
0.0
210
0.0
220
0.0
230
1.0
  0
LINE
  5
3C1
100
AcDbEntity
  8
0
 62
     1
 48
0.0053
100
AcDbLine
 10
128.188614
 20
81.199921
 30
0.0
 11
128.384354
 21
81.281395
 31
0.0
210
0.0
220
0.0
230
1.0
  0
LINE
  5
3C2
100
AcDbEntity
  8
0
 62
     1
 48
0.004909
100
AcDbLine
 10
128.384354
 20
81.281395
 30
0.0
 11
128.562271
 21
81.364502
 31
0.0
210
0.0
220
0.0
230
1.0
  0
LINE
  5
3C3
100
AcDbEntity
  8
0
 62
     1
 48
0.004528
100
AcDbLine
 10
128.562271
 20
81.364502
 30
0.0
 11
128.722336
 21
81.449249
 31
0.0
210
0.0
220
0.0
230
1.0
  0
LINE
  5
3C4
100
AcDbEntity
  8
0
 62
     1
 48
0.004332
100
AcDbLine
 10
128.722336
 20
81.449249
 30
0.0
 11
128.870331
 21
81.539383
 31
0.0
210
0.0
220
0.0
230
1.0
  0
LINE
  5
3C5
100
AcDbEntity
  8
0
 62
     1
 48
0.004324
100
AcDbLine
 10
128.870331
 20
81.539383
 30
0.0
 11
129.011963
 21
81.638657
 31
0.0
210
0.0
220
0.0
230
1.0
  0
LINE
  5
3C6
100
AcDbEntity
  8
0
 62
     1
 48
0.004335
100
AcDbLine
 10
129.011963
 20
81.638657
 30
0.0
 11
129.147278
 21
81.74707
 31
0.0
210
0.0
220
0.0
230
1.0
  0
LINE
  5
3C7
100
AcDbEntity
  8
0
 62
     1
 48
0.004363
100
AcDbLine
 10
129.147278
 20
81.74707
 30
0.0
 11
129.276245
 21
81.864632
 31
0.0
210
0.0
220
0.0
230
1.0
  0
LINE
  5
3C8
100
AcDbEntity
  8
0
 62
     1
 48
0.004408
100
AcDbLine
 10
129.276245
 20
81.864632
 30
0.0
 11
129.398865
 21
81.991341
 31
0.0
210
0.0
220
0.0
230
1.0
  0
LINE
  5
3C9
100
AcDbEntity
  8
0
 62
     1
 48
0.00447
100
AcDbLine
 10
129.398865
 20
81.991341
 30
0.0
 11
129.515152
 21
82.127182
 31
0.0
210
0.0
220
0.0
230
1.0
  0
LINE
  5
3CA
100
AcDbEntity
  8
0
 62
     1
 48
0.004549
100
AcDbLine
 10
129.515152
 20
82.127182
 30
0.0
 11
129.625092
 21
82.272171
 31
0.0
210
0.0
220
0.0
230
1.0
  0
LINE
  5
3CB
100
AcDbEntity
  8
0
 62
     1
 48
0.004643
100
AcDbLine
 10
129.625092
 20
82.272171
 30
0.0
 11
129.728699
 21
82.426308
 31
0.0
210
0.0
220
0.0
230
1.0
  0
LINE
  5
3CC
100
AcDbEntity
  8
0
 62
     1
 48
0.004751
100
AcDbLine
 10
129.728699
 20
82.426308
 30
0.0
 11
129.825958
 21
82.589584
 31
0.0
210
0.0
220
0.0
230
1.0
  0
LINE
  5
3CD
100
AcDbEntity
  8
0
 62
     1
 48
0.004873
100
AcDbLine
 10
129.825958
 20
82.589584
 30
0.0
 11
129.916885
 21
82.761993
 31
0.0
210
0.0
220
0.0
230
1.0
  0
LINE
  5
3CE
100
AcDbEntity
  8
0
 62
     1
 48
0.004937
100
AcDbLine
 10
129.916885
 20
82.761993
 30
0.0
 11
129.997711
 21
82.942192
 31
0.0
210
0.0
220
0.0
230
1.0
  0
LINE
  5
3CF
100
AcDbEntity
  8
0
 62
     1
 48
0.004957
100
AcDbLine
 10
129.997711
 20
82.942192
 30
0.0
 11
130.064713
 21
83.128799
 31
0.0
210
0.0
220
0.0
230
1.0
  0
LINE
  5
3D0
100
AcDbEntity
  8
0
 62
     1
 48
0.005005
100
AcDbLine
 10
130.064713
 20
83.128799
 30
0.0
 11
130.117859
 21
83.321823
 31
0.0
210
0.0
220
0.0
230
1.0
  0
LINE
  5
3D1
100
AcDbEntity
  8
0
 62
     1
 48
0.005082
100
AcDbLine
 10
130.117859
 20
83.321823
 30
0.0
 11
130.157166
 21
83.521263
 31
0.0
210
0.0
220
0.0
230
1.0
  0
LINE
  5
3D2
100
AcDbEntity
  8
0
 62
     1
 48
0.005186
100
AcDbLine
 10
130.157166
 20
83.521263
 30
0.0
 11
130.182648
 21
83.727119
 31
0.0
210
0.0
220
0.0
230
1.0
  0
LINE
  5
3D3
100
AcDbEntity
  8
0
 62
     1
 48
0.005315
100
AcDbLine
 10
130.182648
 20
83.727119
 30
0.0
 11
130.194275
 21
83.939392
 31
0.0
210
0.0
220
0.0
230
1.0
  0
LINE
  5
3D4
100
AcDbEntity
  8
0
 62
     1
 48
0.005467
100
AcDbLine
 10
130.194275
 20
83.939392
 30
0.0
 11
130.192078
 21
84.158073
 31
0.0
210
0.0
220
0.0
230
1.0
  0
LINE
  5
3D5
100
AcDbEntity
  8
0
 62
     1
 48
0.005642
100
AcDbLine
 10
130.192078
 20
84.158073
 30
0.0
 11
130.176025
 21
84.383171
 31
0.0
210
0.0
220
0.0
230
1.0
  0
LINE
  5
3D6
100
AcDbEntity
  8
0
 62
     1
 48
0.005836
100
AcDbLine
 10
130.176025
 20
84.383171
 30
0.0
 11
130.146133
 21
84.614685
 31
0.0
210
0.0
220
0.0
230
1.0
  0
LINE
  5
3D7
100
AcDbEntity
  8
0
 62
     1
 48
0.006048
100
AcDbLine
 10
130.146133
 20
84.614685
 30
0.0
 11
130.102417
 21
84.852608
 31
0.0
210
0.0
220
0.0
230
1.0
  0
LINE
  5
3D8
100
AcDbEntity
  8
0
 62
     1
 48
0.010743
100
AcDbLine
 10
130.102417
 20
84.852608
 30
0.0
 11
129.987122
 21
85.266586
 31
0.0
210
0.0
220
0.0
230
1.0
  0
LINE
  5
3D9
100
AcDbEntity
  8
0
 62
     1
 48
0.009816
100
AcDbLine
 10
129.987122
 20
85.266586
 30
0.0
 11
129.826782
 21
85.624985
 31
0.0
210
0.0
220
0.0
230
1.0
  0
LINE
  5
3DA
100
AcDbEntity
  8
0
 62
     1
 48
0.009147
100
AcDbLine
 10
129.826782
 20
85.624985
 30
0.0
 11
129.621445
 21
85.927803
 31
0.0
210
0.0
220
0.0
230
1.0
  0
LINE
  5
3DB
100
AcDbEntity
  8
0
 62
     1
 48
0.008796
100
AcDbLine
 10
129.621445
 20
85.927803
 30
0.0
 11
129.371094
 21
86.175041
 31
0.0
210
0.0
220
0.0
230
1.0
  0
LINE
  5
3DC
100
AcDbEntity
  8
0
 62
     1
 48
0.008803
100
AcDbLine
 10
129.371094
 20
86.175041
 30
0.0
 11
129.075699
 21
86.366692
 31
0.0
210
0.0
220
0.0
230
1.0
  0
LINE
  5
3DD
100
AcDbEntity
  8
0
 62
     1
 48
0.009165
100
AcDbLine
 10
129.075699
 20
86.366692
 30
0.0
 11
128.735291
 21
86.502762
 31
0.0
210
0.0
220
0.0
230
1.0
  0
LINE
  5
3DE
100
AcDbEntity
  8
0
 62
     1
 48
0.009844
100
AcDbLine
 10
128.735291
 20
86.502762
 30
0.0
 11
128.349854
 21
86.583252
 31
0.0
210
0.0
220
0.0
230
1.0
  0
LINE
  5
3DF
100
AcDbEntity
  8
0
 62
     1
 48
0.010779
100
AcDbLine
 10
128.349854
 20
86.583252
 30
0.0
 11
127.919403
 21
86.608154
 31
0.0
210
0.0
220
0.0
230
1.0
  0
LINE
  5
3E0
100
AcDbEntity
  8
0
 62
     1
 48
0.011912
100
AcDbLine
 10
127.919403
 20
86.608154
 30
0.0
 11
127.443924
 21
86.577477
 31
0.0
210
0.0
220
0.0
230
1.0
  0
LINE
  5
3E1
100
AcDbEntity
  8
0
 62
     1
 48
0.01319
100
AcDbLine
 10
127.443924
 20
86.577477
 30
0.0
 11
126.923431
 21
86.491226
 31
0.0
210
0.0
220
0.0
230
1.0
  0
LINE
  5
3E2
100
AcDbEntity
  8
0
 62
     1
 48
0.091458
100
AcDbLine
 10
126.923431
 20
86.491226
 30
0.0
 11
123.343231
 21
85.739273
 31
0.0
210
0.0
220
0.0
230
1.0
  0
LINE
  5
3E3
100
AcDbEntity
  8
0
 62
     1
 48
0.229909
100
AcDbLine
 10
123.343231
 20
85.739273
 30
0.0
 11
123.343231
 21
76.5429
 31
0.0
210
0.0
220
0.0
230
1.0
  0
LINE
  5
3E4
100
AcDbEntity
  8
0
 62
     1
 48
0.046317
100
AcDbLine
 10
123.343231
 20
76.5429
 30
0.0
 11
125.156342
 21
76.923714
 31
0.0
210
0.0
220
0.0
230
1.0
  0
LINE
  5
3E5
100
AcDbEntity
  8
0
 62
     1
 48
0.014342
100
AcDbLine
 10
125.146614
 20
81.957085
 30
0.0
 11
125.708031
 21
82.075005
 31
0.0
210
0.0
220
0.0
230
1.0
  0
LINE
  5
3E6
100
AcDbEntity
  8
0
 62
     1
 48
0.00812
100
AcDbLine
 10
125.708031
 20
82.075005
 30
0.0
 11
126.025078
 21
82.145576
 31
0.0
210
0.0
220
0.0
230
1.0
  0
LINE
  5
3E7
100
AcDbEntity
  8
0
 62
     1
 48
0.007624
100
AcDbLine
 10
126.025078
 20
82.145576
 30
0.0
 11
126.320915
 21
82.219681
 31
0.0
210
0.0
220
0.0
230
1.0
  0
LINE
  5
3E8
100
AcDbEntity
  8
0
 62
     1
 48
0.007134
100
AcDbLine
 10
126.320915
 20
82.219681
 30
0.0
 11
126.595535
 21
82.297295
 31
0.0
210
0.0
220
0.0
230
1.0
  0
LINE
  5
3E9
100
AcDbEntity
  8
0
 62
     1
 48
0.006652
100
AcDbLine
 10
126.595535
 20
82.297295
 30
0.0
 11
126.848953
 21
82.378441
 31
0.0
210
0.0
220
0.0
230
1.0
  0
LINE
  5
3EA
100
AcDbEntity
  8
0
 62
     1
 48
0.006179
100
AcDbLine
 10
126.848953
 20
82.378441
 30
0.0
 11
127.081169
 21
82.463104
 31
0.0
210
0.0
220
0.0
230
1.0
  0
LINE
  5
3EB
100
AcDbEntity
  8
0
 62
     1
 48
0.005717
100
AcDbLine
 10
127.081169
 20
82.463104
 30
0.0
 11
127.292175
 21
82.551285
 31
0.0
210
0.0
220
0.0
230
1.0
  0
LINE
  5
3EC
100
AcDbEntity
  8
0
 62
     1
 48
0.00527
100
AcDbLine
 10
127.292175
 20
82.551285
 30
0.0
 11
127.481964
 21
82.64299
 31
0.0
210
0.0
220
0.0
230
1.0
  0
LINE
  5
3ED
100
AcDbEntity
  8
0
 62
     1
 48
0.004841
100
AcDbLine
 10
127.481964
 20
82.64299
 30
0.0
 11
127.650558
 21
82.73822
 31
0.0
210
0.0
220
0.0
230
1.0
  0
LINE
  5
3EE
100
AcDbEntity
  8
0
 62
     1
 48
0.004435
100
AcDbLine
 10
127.650558
 20
82.73822
 30
0.0
 11
127.797935
 21
82.836975
 31
0.0
210
0.0
220
0.0
230
1.0
  0
LINE
  5
3EF
100
AcDbEntity
  8
0
 62
     1
 48
0.00406
100
AcDbLine
 10
127.797935
 20
82.836975
 30
0.0
 11
127.924103
 21
82.93924
 31
0.0
210
0.0
220
0.0
230
1.0
  0
LINE
  5
3F0
100
AcDbEntity
  8
0
 62
     1
 48
0.003807
100
AcDbLine
 10
127.924103
 20
82.93924
 30
0.0
 11
128.032089
 21
83.046631
 31
0.0
210
0.0
220
0.0
230
1.0
  0
LINE
  5
3F1
100
AcDbEntity
  8
0
 62
     1
 48
0.003678
100
AcDbLine
 10
128.032089
 20
83.046631
 30
0.0
 11
128.124939
 21
83.160736
 31
0.0
210
0.0
220
0.0
230
1.0
  0
LINE
  5
3F2
100
AcDbEntity
  8
0
 62
     1
 48
0.003591
100
AcDbLine
 10
128.124939
 20
83.160736
 30
0.0
 11
128.202621
 21
83.281555
 31
0.0
210
0.0
220
0.0
230
1.0
  0
LINE
  5
3F3
100
AcDbEntity
  8
0
 62
     1
 48
0.003551
100
AcDbLine
 10
128.202621
 20
83.281555
 30
0.0
 11
128.265152
 21
83.409096
 31
0.0
210
0.0
220
0.0
230
1.0
  0
LINE
  5
3F4
100
AcDbEntity
  8
0
 62
     1
 48
0.003559
100
AcDbLine
 10
128.265152
 20
83.409096
 30
0.0
 11
128.312546
 21
83.54335
 31
0.0
210
0.0
220
0.0
230
1.0
  0
LINE
  5
3F5
100
AcDbEntity
  8
0
 62
     1
 48
0.003615
100
AcDbLine
 10
128.312546
 20
83.54335
 30
0.0
 11
128.344772
 21
83.684311
 31
0.0
210
0.0
220
0.0
230
1.0
  0
LINE
  5
3F6
100
AcDbEntity
  8
0
 62
     1
 48
0.003717
100
AcDbLine
 10
128.344772
 20
83.684311
 30
0.0
 11
128.361847
 21
83.832001
 31
0.0
210
0.0
220
0.0
230
1.0
  0
LINE
  5
3F7
100
AcDbEntity
  8
0
 62
     1
 48
0.00386
100
AcDbLine
 10
128.361847
 20
83.832001
 30
0.0
 11
128.36377
 21
83.986397
 31
0.0
210
0.0
220
0.0
230
1.0
  0
LINE
  5
3F8
100
AcDbEntity
  8
0
 62
     1
 48
0.004041
100
AcDbLine
 10
128.36377
 20
83.986397
 30
0.0
 11
128.35054
 21
84.147507
 31
0.0
210
0.0
220
0.0
230
1.0
  0
LINE
  5
3F9
100
AcDbEntity
  8
0
 62
     1
 48
0.004255
100
AcDbLine
 10
128.35054
 20
84.147507
 30
0.0
 11
128.322174
 21
84.315338
 31
0.0
210
0.0
220
0.0
230
1.0
  0
LINE
  5
3FA
100
AcDbEntity
  8
0
 62
     1
 48
0.002642
100
AcDbLine
 10
128.322174
 20
84.315338
 30
0.0
 11
128.297104
 21
84.417992
 31
0.0
210
0.0
220
0.0
230
1.0
  0
LINE
  5
3FB
100
AcDbEntity
  8
0
 62
     1
 48
0.00248
100
AcDbLine
 10
128.297104
 20
84.417992
 30
0.0
 11
128.266739
 21
84.512421
 31
0.0
210
0.0
220
0.0
230
1.0
  0
LINE
  5
3FC
100
AcDbEntity
  8
0
 62
     1
 48
0.002332
100
AcDbLine
 10
128.266739
 20
84.512421
 30
0.0
 11
128.231094
 21
84.598625
 31
0.0
210
0.0
220
0.0
230
1.0
  0
LINE
  5
3FD
100
AcDbEntity
  8
0
 62
     1
 48
0.002202
100
AcDbLine
 10
128.231094
 20
84.598625
 30
0.0
 11
128.19017
 21
84.676605
 31
0.0
210
0.0
220
0.0
230
1.0
  0
LINE
  5
3FE
100
AcDbEntity
  8
0
 62
     1
 48
0.002092
100
AcDbLine
 10
128.19017
 20
84.676605
 30
0.0
 11
128.143951
 21
84.746376
 31
0.0
210
0.0
220
0.0
230
1.0
  0
LINE
  5
3FF
100
AcDbEntity
  8
0
 62
     1
 48
0.002006
100
AcDbLine
 10
128.143951
 20
84.746376
 30
0.0
 11
128.092438
 21
84.807915
 31
0.0
210
0.0
220
0.0
230
1.0
  0
LINE
  5
400
100
AcDbEntity
  8
0
 62
     1
 48
0.001948
100
AcDbLine
 10
128.092438
 20
84.807915
 30
0.0
 11
128.035645
 21
84.861237
 31
0.0
210
0.0
220
0.0
230
1.0
  0
LINE
  5
401
100
AcDbEntity
  8
0
 62
     1
 48
0.001918
100
AcDbLine
 10
128.035645
 20
84.861237
 30
0.0
 11
127.973564
 21
84.906334
 31
0.0
210
0.0
220
0.0
230
1.0
  0
LINE
  5
402
100
AcDbEntity
  8
0
 62
     1
 48
0.00192
100
AcDbLine
 10
127.973564
 20
84.906334
 30
0.0
 11
127.906189
 21
84.943207
 31
0.0
210
0.0
220
0.0
230
1.0
  0
LINE
  5
403
100
AcDbEntity
  8
0
 62
     1
 48
0.001953
100
AcDbLine
 10
127.906189
 20
84.943207
 30
0.0
 11
127.833527
 21
84.971863
 31
0.0
210
0.0
220
0.0
230
1.0
  0
LINE
  5
404
100
AcDbEntity
  8
0
 62
     1
 48
0.002109
100
AcDbLine
 10
127.833527
 20
84.971863
 30
0.0
 11
127.751869
 21
84.993057
 31
0.0
210
0.0
220
0.0
230
1.0
  0
LINE
  5
405
100
AcDbEntity
  8
0
 62
     1
 48
0.002387
100
AcDbLine
 10
127.751869
 20
84.993057
 30
0.0
 11
127.657478
 21
85.007538
 31
0.0
210
0.0
220
0.0
230
1.0
  0
LINE
  5
406
100
AcDbEntity
  8
0
 62
     1
 48
0.002685
100
AcDbLine
 10
127.657478
 20
85.007538
 30
0.0
 11
127.550377
 21
85.015312
 31
0.0
210
0.0
220
0.0
230
1.0
  0
LINE
  5
407
100
AcDbEntity
  8
0
 62
     1
 48
0.002995
100
AcDbLine
 10
127.550377
 20
85.015312
 30
0.0
 11
127.430565
 21
85.016388
 31
0.0
210
0.0
220
0.0
230
1.0
  0
LINE
  5
408
100
AcDbEntity
  8
0
 62
     1
 48
0.003316
100
AcDbLine
 10
127.430565
 20
85.016388
 30
0.0
 11
127.298035
 21
85.010742
 31
0.0
210
0.0
220
0.0
230
1.0
  0
LINE
  5
409
100
AcDbEntity
  8
0
 62
     1
 48
0.003644
100
AcDbLine
 10
127.298035
 20
85.010742
 30
0.0
 11
127.152786
 21
84.998405
 31
0.0
210
0.0
220
0.0
230
1.0
  0
LINE
  5
40A
100
AcDbEntity
  8
0
 62
     1
 48
0.003978
100
AcDbLine
 10
127.152786
 20
84.998405
 30
0.0
 11
126.994812
 21
84.979347
 31
0.0
210
0.0
220
0.0
230
1.0
  0
LINE
  5
40B
100
AcDbEntity
  8
0
 62
     1
 48
0.004315
100
AcDbLine
 10
126.994812
 20
84.979347
 30
0.0
 11
126.824135
 21
84.95359
 31
0.0
210
0.0
220
0.0
230
1.0
  0
LINE
  5
40C
100
AcDbEntity
  8
0
 62
     1
 48
0.004656
100
AcDbLine
 10
126.824135
 20
84.95359
 30
0.0
 11
126.640732
 21
84.92112
 31
0.0
210
0.0
220
0.0
230
1.0
  0
LINE
  5
40D
100
AcDbEntity
  8
0
 62
     1
 48
0.005
100
AcDbLine
 10
126.640732
 20
84.92112
 30
0.0
 11
126.444611
 21
84.88195
 31
0.0
210
0.0
220
0.0
230
1.0
  0
LINE
  5
40E
100
AcDbEntity
  8
0
 62
     1
 48
0.033151
100
AcDbLine
 10
126.444611
 20
84.88195
 30
0.0
 11
125.146904
 21
84.60939
 31
0.0
210
0.0
220
0.0
230
1.0
  0
LINE
  5
40F
100
AcDbEntity
  8
0
 62
     1
 48
0.066308
100
AcDbLine
 10
125.146904
 20
84.60939
 30
0.0
 11
125.146614
 21
81.957085
 31
0.0
210
0.0
220
0.0
230
1.0
  0
LINE
  5
410
100
AcDbEntity
  8
0
 62
     1
 48
0.046317
100
AcDbLine
 10
108.958038
 20
73.521561
 30
0.0
 11
110.771141
 21
73.902367
 31
0.0
210
0.0
220
0.0
230
1.0
  0
LINE
  5
411
100
AcDbEntity
  8
0
 62
     1
 48
0.097754
100
AcDbLine
 10
110.771141
 20
73.902367
 30
0.0
 11
110.766701
 21
77.812531
 31
0.0
210
0.0
220
0.0
230
1.0
  0
LINE
  5
412
100
AcDbEntity
  8
0
 62
     1
 48
0.109091
100
AcDbLine
 10
110.766701
 20
77.812531
 30
0.0
 11
115.037155
 21
78.709465
 31
0.0
210
0.0
220
0.0
230
1.0
  0
LINE
  5
413
100
AcDbEntity
  8
0
 62
     1
 48
0.038409
100
AcDbLine
 10
115.037155
 20
78.709465
 30
0.0
 11
115.031593
 21
80.245827
 31
0.0
210
0.0
220
0.0
230
1.0
  0
LINE
  5
414
100
AcDbEntity
  8
0
 62
     1
 48
0.108856
100
AcDbLine
 10
115.031593
 20
80.245827
 30
0.0
 11
110.77034
 21
79.35083
 31
0.0
210
0.0
220
0.0
230
1.0
  0
LINE
  5
415
100
AcDbEntity
  8
0
 62
     1
 48
0.05524
100
AcDbLine
 10
110.77034
 20
79.35083
 30
0.0
 11
110.767509
 21
81.56044
 31
0.0
210
0.0
220
0.0
230
1.0
  0
LINE
  5
416
100
AcDbEntity
  8
0
 62
     1
 48
0.110972
100
AcDbLine
 10
110.767509
 20
81.56044
 30
0.0
 11
115.111595
 21
82.472832
 31
0.0
210
0.0
220
0.0
230
1.0
  0
LINE
  5
417
100
AcDbEntity
  8
0
 62
     1
 48
0.038458
100
AcDbLine
 10
115.111595
 20
82.472832
 30
0.0
 11
115.115234
 21
84.011131
 31
0.0
210
0.0
220
0.0
230
1.0
  0
LINE
  5
418
100
AcDbEntity
  8
0
 62
     1
 48
0.157288
100
AcDbLine
 10
115.115234
 20
84.011131
 30
0.0
 11
108.958038
 21
82.717926
 31
0.0
210
0.0
220
0.0
230
1.0
  0
LINE
  5
419
100
AcDbEntity
  8
0
 62
     1
 48
0.229909
100
AcDbLine
 10
108.958038
 20
82.717926
 30
0.0
 11
108.958038
 21
73.521561
 31
0.0
210
0.0
220
0.0
230
1.0
  0
LINE
  5
41A
100
AcDbEntity
  8
0
 62
     1
 48
0.006107
100
AcDbLine
 10
127.743637
 20
81.041885
 30
0.0
 11
127.975044
 21
81.120087
 31
0.0
210
0.0
220
0.0
230
1.0
  0
LINE
  5
41B
100
AcDbEntity
  8
0
 62
     1
 48
0.0057
100
AcDbLine
 10
127.975044
 20
81.120087
 30
0.0
 11
128.188614
 21
81.199921
 31
0.0
210
0.0
220
0.0
230
1.0
  0
LINE
  5
41C
100
AcDbEntity
  8
0
 62
     1
 48
0.0053
100
AcDbLine
 10
128.188614
 20
81.199921
 30
0.0
 11
128.384354
 21
81.281395
 31
0.0
210
0.0
220
0.0
230
1.0
  0
LINE
  5
41D
100
AcDbEntity
  8
0
 62
     1
 48
0.004909
100
AcDbLine
 10
128.384354
 20
81.281395
 30
0.0
 11
128.562271
 21
81.364502
 31
0.0
210
0.0
220
0.0
230
1.0
  0
LINE
  5
41E
100
AcDbEntity
  8
0
 62
     1
 48
0.004528
100
AcDbLine
 10
128.562271
 20
81.364502
 30
0.0
 11
128.722336
 21
81.449249
 31
0.0
210
0.0
220
0.0
230
1.0
  0
LINE
  5
41F
100
AcDbEntity
  8
0
 62
     1
 48
0.004332
100
AcDbLine
 10
128.722336
 20
81.449249
 30
0.0
 11
128.870331
 21
81.539383
 31
0.0
210
0.0
220
0.0
230
1.0
  0
LINE
  5
420
100
AcDbEntity
  8
0
 62
     1
 48
0.004324
100
AcDbLine
 10
128.870331
 20
81.539383
 30
0.0
 11
129.011963
 21
81.638657
 31
0.0
210
0.0
220
0.0
230
1.0
  0
LINE
  5
421
100
AcDbEntity
  8
0
 62
     1
 48
0.004335
100
AcDbLine
 10
129.011963
 20
81.638657
 30
0.0
 11
129.147278
 21
81.74707
 31
0.0
210
0.0
220
0.0
230
1.0
  0
LINE
  5
422
100
AcDbEntity
  8
0
 62
     1
 48
0.004363
100
AcDbLine
 10
129.147278
 20
81.74707
 30
0.0
 11
129.276245
 21
81.864632
 31
0.0
210
0.0
220
0.0
230
1.0
  0
LINE
  5
423
100
AcDbEntity
  8
0
 62
     1
 48
0.004408
100
AcDbLine
 10
129.276245
 20
81.864632
 30
0.0
 11
129.398865
 21
81.991341
 31
0.0
210
0.0
220
0.0
230
1.0
  0
LINE
  5
424
100
AcDbEntity
  8
0
 62
     1
 48
0.00447
100
AcDbLine
 10
129.398865
 20
81.991341
 30
0.0
 11
129.515152
 21
82.127182
 31
0.0
210
0.0
220
0.0
230
1.0
  0
LINE
  5
425
100
AcDbEntity
  8
0
 62
     1
 48
0.004549
100
AcDbLine
 10
129.515152
 20
82.127182
 30
0.0
 11
129.625092
 21
82.272171
 31
0.0
210
0.0
220
0.0
230
1.0
  0
LINE
  5
426
100
AcDbEntity
  8
0
 62
     1
 48
0.004643
100
AcDbLine
 10
129.625092
 20
82.272171
 30
0.0
 11
129.728699
 21
82.426308
 31
0.0
210
0.0
220
0.0
230
1.0
  0
LINE
  5
427
100
AcDbEntity
  8
0
 62
     1
 48
0.004751
100
AcDbLine
 10
129.728699
 20
82.426308
 30
0.0
 11
129.825958
 21
82.589584
 31
0.0
210
0.0
220
0.0
230
1.0
  0
LINE
  5
428
100
AcDbEntity
  8
0
 62
     1
 48
0.004873
100
AcDbLine
 10
129.825958
 20
82.589584
 30
0.0
 11
129.916885
 21
82.761993
 31
0.0
210
0.0
220
0.0
230
1.0
  0
LINE
  5
429
100
AcDbEntity
  8
0
 62
     1
 48
0.004937
100
AcDbLine
 10
129.916885
 20
82.761993
 30
0.0
 11
129.997711
 21
82.942192
 31
0.0
210
0.0
220
0.0
230
1.0
  0
LINE
  5
42A
100
AcDbEntity
  8
0
 62
     1
 48
0.004957
100
AcDbLine
 10
129.997711
 20
82.942192
 30
0.0
 11
130.064713
 21
83.128799
 31
0.0
210
0.0
220
0.0
230
1.0
  0
LINE
  5
42B
100
AcDbEntity
  8
0
 62
     1
 48
0.005005
100
AcDbLine
 10
130.064713
 20
83.128799
 30
0.0
 11
130.117859
 21
83.321823
 31
0.0
210
0.0
220
0.0
230
1.0
  0
LINE
  5
42C
100
AcDbEntity
  8
0
 62
     1
 48
0.005082
100
AcDbLine
 10
130.117859
 20
83.321823
 30
0.0
 11
130.157166
 21
83.521263
 31
0.0
210
0.0
220
0.0
230
1.0
  0
LINE
  5
42D
100
AcDbEntity
  8
0
 62
     1
 48
0.005186
100
AcDbLine
 10
130.157166
 20
83.521263
 30
0.0
 11
130.182648
 21
83.727119
 31
0.0
210
0.0
220
0.0
230
1.0
  0
LINE
  5
42E
100
AcDbEntity
  8
0
 62
     1
 48
0.005315
100
AcDbLine
 10
130.182648
 20
83.727119
 30
0.0
 11
130.194275
 21
83.939392
 31
0.0
210
0.0
220
0.0
230
1.0
  0
LINE
  5
42F
100
AcDbEntity
  8
0
 62
     1
 48
0.005467
100
AcDbLine
 10
130.194275
 20
83.939392
 30
0.0
 11
130.192078
 21
84.158073
 31
0.0
210
0.0
220
0.0
230
1.0
  0
LINE
  5
430
100
AcDbEntity
  8
0
 62
     1
 48
0.005642
100
AcDbLine
 10
130.192078
 20
84.158073
 30
0.0
 11
130.176025
 21
84.383171
 31
0.0
210
0.0
220
0.0
230
1.0
  0
LINE
  5
431
100
AcDbEntity
  8
0
 62
     1
 48
0.005836
100
AcDbLine
 10
130.176025
 20
84.383171
 30
0.0
 11
130.146133
 21
84.614685
 31
0.0
210
0.0
220
0.0
230
1.0
  0
LINE
  5
432
100
AcDbEntity
  8
0
 62
     1
 48
0.006048
100
AcDbLine
 10
130.146133
 20
84.614685
 30
0.0
 11
130.102417
 21
84.852608
 31
0.0
210
0.0
220
0.0
230
1.0
  0
LINE
  5
433
100
AcDbEntity
  8
0
 62
     1
 48
0.010743
100
AcDbLine
 10
130.102417
 20
84.852608
 30
0.0
 11
129.987122
 21
85.266586
 31
0.0
210
0.0
220
0.0
230
1.0
  0
LINE
  5
434
100
AcDbEntity
  8
0
 62
     1
 48
0.009816
100
AcDbLine
 10
129.987122
 20
85.266586
 30
0.0
 11
129.826782
 21
85.624985
 31
0.0
210
0.0
220
0.0
230
1.0
  0
LINE
  5
435
100
AcDbEntity
  8
0
 62
     1
 48
0.009147
100
AcDbLine
 10
129.826782
 20
85.624985
 30
0.0
 11
129.621445
 21
85.927803
 31
0.0
210
0.0
220
0.0
230
1.0
  0
LINE
  5
436
100
AcDbEntity
  8
0
 62
     1
 48
0.008796
100
AcDbLine
 10
129.621445
 20
85.927803
 30
0.0
 11
129.371094
 21
86.175041
 31
0.0
210
0.0
220
0.0
230
1.0
  0
LINE
  5
437
100
AcDbEntity
  8
0
 62
     1
 48
0.008803
100
AcDbLine
 10
129.371094
 20
86.175041
 30
0.0
 11
129.075699
 21
86.366692
 31
0.0
210
0.0
220
0.0
230
1.0
  0
LINE
  5
438
100
AcDbEntity
  8
0
 62
     1
 48
0.009165
100
AcDbLine
 10
129.075699
 20
86.366692
 30
0.0
 11
128.735291
 21
86.502762
 31
0.0
210
0.0
220
0.0
230
1.0
  0
LINE
  5
439
100
AcDbEntity
  8
0
 62
     1
 48
0.009844
100
AcDbLine
 10
128.735291
 20
86.502762
 30
0.0
 11
128.349854
 21
86.583252
 31
0.0
210
0.0
220
0.0
230
1.0
  0
LINE
  5
43A
100
AcDbEntity
  8
0
 62
     1
 48
0.010779
100
AcDbLine
 10
128.349854
 20
86.583252
 30
0.0
 11
127.919403
 21
86.608154
 31
0.0
210
0.0
220
0.0
230
1.0
  0
LINE
  5
43B
100
AcDbEntity
  8
0
 62
     1
 48
0.011912
100
AcDbLine
 10
127.919403
 20
86.608154
 30
0.0
 11
127.443924
 21
86.577477
 31
0.0
210
0.0
220
0.0
230
1.0
  0
LINE
  5
43C
100
AcDbEntity
  8
0
 62
     1
 48
0.01319
100
AcDbLine
 10
127.443924
 20
86.577477
 30
0.0
 11
126.923431
 21
86.491226
 31
0.0
210
0.0
220
0.0
230
1.0
  0
LINE
  5
43D
100
AcDbEntity
  8
0
 62
     1
 48
0.091458
100
AcDbLine
 10
126.923431
 20
86.491226
 30
0.0
 11
123.343231
 21
85.739273
 31
0.0
210
0.0
220
0.0
230
1.0
  0
LINE
  5
43E
100
AcDbEntity
  8
0
 62
     1
 48
0.229909
100
AcDbLine
 10
123.343231
 20
85.739273
 30
0.0
 11
123.343231
 21
76.5429
 31
0.0
210
0.0
220
0.0
230
1.0
  0
LINE
  5
43F
100
AcDbEntity
  8
0
 62
     1
 48
0.046317
100
AcDbLine
 10
123.343231
 20
76.5429
 30
0.0
 11
125.156342
 21
76.923714
 31
0.0
210
0.0
220
0.0
230
1.0
  0
LINE
  5
440
100
AcDbEntity
  8
0
 62
     1
 48
0.087704
100
AcDbLine
 10
125.156342
 20
76.923714
 30
0.0
 11
125.159454
 21
80.431862
 31
0.0
210
0.0
220
0.0
230
1.0
  0
LINE
  5
441
100
AcDbEntity
  8
0
 62
     1
 48
0.029624
100
AcDbLine
 10
125.159454
 20
80.431862
 30
0.0
 11
126.319107
 21
80.675423
 31
0.0
210
0.0
220
0.0
230
1.0
  0
LINE
  5
442
100
AcDbEntity
  8
0
 62
     1
 48
0.008203
100
AcDbLine
 10
126.319107
 20
80.675423
 30
0.0
 11
126.639679
 21
80.745445
 31
0.0
210
0.0
220
0.0
230
1.0
  0
LINE
  5
443
100
AcDbEntity
  8
0
 62
     1
 48
0.007777
100
AcDbLine
 10
126.639679
 20
80.745445
 30
0.0
 11
126.942413
 21
80.817101
 31
0.0
210
0.0
220
0.0
230
1.0
  0
LINE
  5
444
100
AcDbEntity
  8
0
 62
     1
 48
0.007355
100
AcDbLine
 10
126.942413
 20
80.817101
 30
0.0
 11
127.227318
 21
80.890396
 31
0.0
210
0.0
220
0.0
230
1.0
  0
LINE
  5
445
100
AcDbEntity
  8
0
 62
     1
 48
0.006935
100
AcDbLine
 10
127.227318
 20
80.890396
 30
0.0
 11
127.494392
 21
80.965324
 31
0.0
210
0.0
220
0.0
230
1.0
  0
LINE
  5
446
100
AcDbEntity
  8
0
 62
     1
 48
0.006518
100
AcDbLine
 10
127.494392
 20
80.965324
 30
0.0
 11
127.743637
 21
81.041885
 31
0.0
210
0.0
220
0.0
230
1.0
  0
LINE
  5
447
100
AcDbEntity
  8
0
 62
     1
 48
0.006652
100
AcDbLine
 10
126.595535
 20
82.297295
 30
0.0
 11
126.848953
 21
82.378441
 31
0.0
210
0.0
220
0.0
230
1.0
  0
LINE
  5
448
100
AcDbEntity
  8
0
 62
     1
 48
0.006179
100
AcDbLine
 10
126.848953
 20
82.378441
 30
0.0
 11
127.081169
 21
82.463104
 31
0.0
210
0.0
220
0.0
230
1.0
  0
LINE
  5
449
100
AcDbEntity
  8
0
 62
     1
 48
0.005717
100
AcDbLine
 10
127.081169
 20
82.463104
 30
0.0
 11
127.292175
 21
82.551285
 31
0.0
210
0.0
220
0.0
230
1.0
  0
LINE
  5
44A
100
AcDbEntity
  8
0
 62
     1
 48
0.00527
100
AcDbLine
 10
127.292175
 20
82.551285
 30
0.0
 11
127.481964
 21
82.64299
 31
0.0
210
0.0
220
0.0
230
1.0
  0
LINE
  5
44B
100
AcDbEntity
  8
0
 62
     1
 48
0.004841
100
AcDbLine
 10
127.481964
 20
82.64299
 30
0.0
 11
127.650558
 21
82.73822
 31
0.0
210
0.0
220
0.0
230
1.0
  0
LINE
  5
44C
100
AcDbEntity
  8
0
 62
     1
 48
0.004435
100
AcDbLine
 10
127.650558
 20
82.73822
 30
0.0
 11
127.797935
 21
82.836975
 31
0.0
210
0.0
220
0.0
230
1.0
  0
LINE
  5
44D
100
AcDbEntity
  8
0
 62
     1
 48
0.00406
100
AcDbLine
 10
127.797935
 20
82.836975
 30
0.0
 11
127.924103
 21
82.93924
 31
0.0
210
0.0
220
0.0
230
1.0
  0
LINE
  5
44E
100
AcDbEntity
  8
0
 62
     1
 48
0.003807
100
AcDbLine
 10
127.924103
 20
82.93924
 30
0.0
 11
128.032089
 21
83.046631
 31
0.0
210
0.0
220
0.0
230
1.0
  0
LINE
  5
44F
100
AcDbEntity
  8
0
 62
     1
 48
0.003678
100
AcDbLine
 10
128.032089
 20
83.046631
 30
0.0
 11
128.124939
 21
83.160736
 31
0.0
210
0.0
220
0.0
230
1.0
  0
LINE
  5
450
100
AcDbEntity
  8
0
 62
     1
 48
0.003591
100
AcDbLine
 10
128.124939
 20
83.160736
 30
0.0
 11
128.202621
 21
83.281555
 31
0.0
210
0.0
220
0.0
230
1.0
  0
LINE
  5
451
100
AcDbEntity
  8
0
 62
     1
 48
0.003551
100
AcDbLine
 10
128.202621
 20
83.281555
 30
0.0
 11
128.265152
 21
83.409096
 31
0.0
210
0.0
220
0.0
230
1.0
  0
LINE
  5
452
100
AcDbEntity
  8
0
 62
     1
 48
0.003559
100
AcDbLine
 10
128.265152
 20
83.409096
 30
0.0
 11
128.312546
 21
83.54335
 31
0.0
210
0.0
220
0.0
230
1.0
  0
LINE
  5
453
100
AcDbEntity
  8
0
 62
     1
 48
0.003615
100
AcDbLine
 10
128.312546
 20
83.54335
 30
0.0
 11
128.344772
 21
83.684311
 31
0.0
210
0.0
220
0.0
230
1.0
  0
LINE
  5
454
100
AcDbEntity
  8
0
 62
     1
 48
0.003717
100
AcDbLine
 10
128.344772
 20
83.684311
 30
0.0
 11
128.361847
 21
83.832001
 31
0.0
210
0.0
220
0.0
230
1.0
  0
LINE
  5
455
100
AcDbEntity
  8
0
 62
     1
 48
0.00386
100
AcDbLine
 10
128.361847
 20
83.832001
 30
0.0
 11
128.36377
 21
83.986397
 31
0.0
210
0.0
220
0.0
230
1.0
  0
LINE
  5
456
100
AcDbEntity
  8
0
 62
     1
 48
0.004041
100
AcDbLine
 10
128.36377
 20
83.986397
 30
0.0
 11
128.35054
 21
84.147507
 31
0.0
210
0.0
220
0.0
230
1.0
  0
LINE
  5
457
100
AcDbEntity
  8
0
 62
     1
 48
0.004255
100
AcDbLine
 10
128.35054
 20
84.147507
 30
0.0
 11
128.322174
 21
84.315338
 31
0.0
210
0.0
220
0.0
230
1.0
  0
LINE
  5
458
100
AcDbEntity
  8
0
 62
     1
 48
0.002642
100
AcDbLine
 10
128.322174
 20
84.315338
 30
0.0
 11
128.297104
 21
84.417992
 31
0.0
210
0.0
220
0.0
230
1.0
  0
LINE
  5
459
100
AcDbEntity
  8
0
 62
     1
 48
0.00248
100
AcDbLine
 10
128.297104
 20
84.417992
 30
0.0
 11
128.266739
 21
84.512421
 31
0.0
210
0.0
220
0.0
230
1.0
  0
LINE
  5
45A
100
AcDbEntity
  8
0
 62
     1
 48
0.002332
100
AcDbLine
 10
128.266739
 20
84.512421
 30
0.0
 11
128.231094
 21
84.598625
 31
0.0
210
0.0
220
0.0
230
1.0
  0
LINE
  5
45B
100
AcDbEntity
  8
0
 62
     1
 48
0.002202
100
AcDbLine
 10
128.231094
 20
84.598625
 30
0.0
 11
128.19017
 21
84.676605
 31
0.0
210
0.0
220
0.0
230
1.0
  0
LINE
  5
45C
100
AcDbEntity
  8
0
 62
     1
 48
0.002092
100
AcDbLine
 10
128.19017
 20
84.676605
 30
0.0
 11
128.143951
 21
84.746376
 31
0.0
210
0.0
220
0.0
230
1.0
  0
LINE
  5
45D
100
AcDbEntity
  8
0
 62
     1
 48
0.002006
100
AcDbLine
 10
128.143951
 20
84.746376
 30
0.0
 11
128.092438
 21
84.807915
 31
0.0
210
0.0
220
0.0
230
1.0
  0
LINE
  5
45E
100
AcDbEntity
  8
0
 62
     1
 48
0.001948
100
AcDbLine
 10
128.092438
 20
84.807915
 30
0.0
 11
128.035645
 21
84.861237
 31
0.0
210
0.0
220
0.0
230
1.0
  0
LINE
  5
45F
100
AcDbEntity
  8
0
 62
     1
 48
0.001918
100
AcDbLine
 10
128.035645
 20
84.861237
 30
0.0
 11
127.973564
 21
84.906334
 31
0.0
210
0.0
220
0.0
230
1.0
  0
LINE
  5
460
100
AcDbEntity
  8
0
 62
     1
 48
0.00192
100
AcDbLine
 10
127.973564
 20
84.906334
 30
0.0
 11
127.906189
 21
84.943207
 31
0.0
210
0.0
220
0.0
230
1.0
  0
LINE
  5
461
100
AcDbEntity
  8
0
 62
     1
 48
0.001953
100
AcDbLine
 10
127.906189
 20
84.943207
 30
0.0
 11
127.833527
 21
84.971863
 31
0.0
210
0.0
220
0.0
230
1.0
  0
LINE
  5
462
100
AcDbEntity
  8
0
 62
     1
 48
0.002109
100
AcDbLine
 10
127.833527
 20
84.971863
 30
0.0
 11
127.751869
 21
84.993057
 31
0.0
210
0.0
220
0.0
230
1.0
  0
LINE
  5
463
100
AcDbEntity
  8
0
 62
     1
 48
0.002387
100
AcDbLine
 10
127.751869
 20
84.993057
 30
0.0
 11
127.657478
 21
85.007538
 31
0.0
210
0.0
220
0.0
230
1.0
  0
LINE
  5
464
100
AcDbEntity
  8
0
 62
     1
 48
0.002685
100
AcDbLine
 10
127.657478
 20
85.007538
 30
0.0
 11
127.550377
 21
85.015312
 31
0.0
210
0.0
220
0.0
230
1.0
  0
LINE
  5
465
100
AcDbEntity
  8
0
 62
     1
 48
0.002995
100
AcDbLine
 10
127.550377
 20
85.015312
 30
0.0
 11
127.430565
 21
85.016388
 31
0.0
210
0.0
220
0.0
230
1.0
  0
LINE
  5
466
100
AcDbEntity
  8
0
 62
     1
 48
0.003316
100
AcDbLine
 10
127.430565
 20
85.016388
 30
0.0
 11
127.298035
 21
85.010742
 31
0.0
210
0.0
220
0.0
230
1.0
  0
LINE
  5
467
100
AcDbEntity
  8
0
 62
     1
 48
0.003644
100
AcDbLine
 10
127.298035
 20
85.010742
 30
0.0
 11
127.152786
 21
84.998405
 31
0.0
210
0.0
220
0.0
230
1.0
  0
LINE
  5
468
100
AcDbEntity
  8
0
 62
     1
 48
0.003978
100
AcDbLine
 10
127.152786
 20
84.998405
 30
0.0
 11
126.994812
 21
84.979347
 31
0.0
210
0.0
220
0.0
230
1.0
  0
LINE
  5
469
100
AcDbEntity
  8
0
 62
     1
 48
0.004315
100
AcDbLine
 10
126.994812
 20
84.979347
 30
0.0
 11
126.824135
 21
84.95359
 31
0.0
210
0.0
220
0.0
230
1.0
  0
LINE
  5
46A
100
AcDbEntity
  8
0
 62
     1
 48
0.004656
100
AcDbLine
 10
126.824135
 20
84.95359
 30
0.0
 11
126.640732
 21
84.92112
 31
0.0
210
0.0
220
0.0
230
1.0
  0
LINE
  5
46B
100
AcDbEntity
  8
0
 62
     1
 48
0.005
100
AcDbLine
 10
126.640732
 20
84.92112
 30
0.0
 11
126.444611
 21
84.88195
 31
0.0
210
0.0
220
0.0
230
1.0
  0
LINE
  5
46C
100
AcDbEntity
  8
0
 62
     1
 48
0.033151
100
AcDbLine
 10
126.444611
 20
84.88195
 30
0.0
 11
125.146904
 21
84.60939
 31
0.0
210
0.0
220
0.0
230
1.0
  0
LINE
  5
46D
100
AcDbEntity
  8
0
 62
     1
 48
0.066308
100
AcDbLine
 10
125.146904
 20
84.60939
 30
0.0
 11
125.146614
 21
81.957085
 31
0.0
210
0.0
220
0.0
230
1.0
  0
LINE
  5
46E
100
AcDbEntity
  8
0
 62
     1
 48
0.014342
100
AcDbLine
 10
125.146614
 20
81.957085
 30
0.0
 11
125.708031
 21
82.075005
 31
0.0
210
0.0
220
0.0
230
1.0
  0
LINE
  5
46F
100
AcDbEntity
  8
0
 62
     1
 48
0.00812
100
AcDbLine
 10
125.708031
 20
82.075005
 30
0.0
 11
126.025078
 21
82.145576
 31
0.0
210
0.0
220
0.0
230
1.0
  0
LINE
  5
470
100
AcDbEntity
  8
0
 62
     1
 48
0.007624
100
AcDbLine
 10
126.025078
 20
82.145576
 30
0.0
 11
126.320915
 21
82.219681
 31
0.0
210
0.0
220
0.0
230
1.0
  0
LINE
  5
471
100
AcDbEntity
  8
0
 62
     1
 48
0.007134
100
AcDbLine
 10
126.320915
 20
82.219681
 30
0.0
 11
126.595535
 21
82.297295
 31
0.0
210
0.0
220
0.0
230
1.0
  0
ENDSEC
  0
SECTION
  2
OBJECTS
  0
DICTIONARY
  5
19
100
AcDbDictionary
  3
ACAD_GROUP
350
1A
  3
ACAD_MLINESTYLE
350
1B
  0
DICTIONARY
  5
1A
102
{ACAD_REACTORS
330
19
102
}
100
AcDbDictionary
  0
DICTIONARY
  5
1B
102
{ACAD_REACTORS
330
19
102
}
100
AcDbDictionary
  3
STANDARD
350
1C
  0
MLINESTYLE
  5
1C
102
{ACAD_REACTORS
330
1B
102
}
100
AcDbMlineStyle
  2
STANDARD
 70
     0
  3

 62
     0
 51
90.0
 52
90.0
 71
     2
 49
0.5
 62
   256
  6
BYLAYER
 49
-0.5
 62
   256
  6
BYLAYER
  0
ENDSEC
  0
EOF
